Know Music, Know Life

tsunvun86's Guitar Chords & Tabs

SCANDAL – Pride [Chords & Tabs]

with one comment


I might change some things after I double-triple check all of it. But it should be fine 😛

SCANDAL - Pride

G#/C - x3111x or x36xxx(Power) or play C
G#/C# - x46544
C#maj7 - x46564 or x465xx (Power)
Bb/D - x5333x or x58xxx(Power) or play D
Eb/G - 365343 or 36xxxx(Power) or play Eb
Fm/D - xx0111 or xx0564or x56xxx(Power)
Bbm/G - 3x332x or 3433xx or 34xxxx(Power)

Intro:
Fm Eb C#
G#/C Bbm Eb G#
C# Eb Fm
C# Eb G# Fm
C#maj7

Verse:
Fm Cm G#/C# Bb
Fm Eb G# Bb C

Pre-Chorus:
C# Cm Fm
Bbm Cm C# Bb/D Eb
C

Chorus:
Fm Eb C#            )
G#/C Bbm Eb G# Eb/G } (x3)
Fm Eb C#
G#/C Bbm Eb G#
C# G#/C Bbm
F#7

Instrumental:
C# Cm (x2)

Verse 2:
Fm Cm C# Bb C

repeat Pre-Chorus

Chorus 2:
Fm Eb C#            )
G#/C Bbm Eb G# Eb/G } (x3)
Fm Eb C#
G#/C Bbm Eb G#

Bridge:
F# Fm
Ebm G# C#
Bbm7 Cm7 Fm
Fm/D Bbm/G C

Solo:
Fm Eb G#
G#/C# Bbm C
G#/C# Cm (x2)

Chorus 3:
Fm Eb G# Bb
Fm Eb C#
G#/C Bbm Eb G#
Fm Eb C#            )
G#/C Bbm Eb G# Eb/G } (x2)
Fm Eb C#
G#/C Bbm Eb G#
C# G#/C Bbm Cm
C# Bb/D Eb
F#7

Outro:
C# Eb Fm    )
C# Eb G# Fm } (x2)
C#maj7

Intro Solo:
Guitar 1
-----------------------------------------------------------------------------
-----------------------------------4---------------------------6-------------
---8-5-----------------5-3h5p3---3---6-5-----------------5--8-----5~~\3------
-6------6/8-6-8-6---6----------6----------6/8-6-8-6---6------------------3~\-
------------------8---------------------------------8------------------------
-----------------------------------------------------------------------------

Guitar 2
----------------------------------------------------11-----------------------------
----16-13-------------------------13-11h13p11----11----14-13-----------------------
-13---------13/15-13-15-13----13--------------13--------------13/15-13-15-13----13-
---------------------------15------------------------------------------------15----
-----------------------------------------------------------------------------------
-----------------------------------------------------------------------------------

---------13----------------
-11--16------13~~\11-------
----------------------10~\-
---------------------------
---------------------------
---------------------------

Verse:
 Fm            Cm               G#/C#              Bb
------------11\-------------------x-x-4-x-4--------------------------------------
-9--x-9\---------9-x-8-x-x-9--8---x-x-4-x-4----4-----x-x-6-x-6-x-x-6-x-x---------
-10-x-10\---8\---8-x-8-x-x-8--8---x-x-5-x-5------5---x-x-7-x-7-x-x-7-x-x-7b8b7---
--------------------------------------------/6-----------------------------------
---------------------------------------------------------------------------------
---------------------------------------------------------------------------------
 Fm                          Eb                     G#
----------------------------------------------------4-x-4-x-x-4-x-x-4-x-4------
-9--x-9--x-x-9--x-x-9--x-9---8-x-8-x-x-8-x-x-8-x-8--4-x-4-x-x-4-x-x-4-x-4------
-10-x-10-x-x-10-x-x-10-x-10--8-x-8-x-x-8-x-x-8-x-8--5-x-5-x-x-5-x-x-5-x-5------
----------------------------------------------------6-x-6-x-x-6-x-x-6-x-6------
-------------------------------------------------------------------------------
-------------------------------------------------------------------------------

 Bb               C
----------------------------
-3--3--3--3-3-x-x-5--5------
-3--3--3--3-3-x-x-5--5------
----------------------------
----------------------------
----------------------------

Pre-Chorus:
        Bbm          Cm        C#      Bb/D  Eb            C
-----------------------------------------------------------12/13--12-12--------
-11/13--11~\9--9~\8--8~\4--4---------------------------------------------------
-------------------------------6-6-6-6-7-7-7-8--8-8--8-8---9/10---9--9---------
-8/10---8~\6---6~\5--5~\1--1---6-6-6-6-8-8-8-8--8-8--8-8-----------------------
-------------------------------4-4-4-4-5-5-5-6--6-6--6-6-----------------------
-------------------------------------------------------------------------------

Instrumental:
Guitar 1
----------------------------------------------------------------------------------
----------------------------------------------------------------------------------
----------------------------------------------------------------------------------
-6----6--5--6----6--5--6----6--5--6/8-8-8-6-6----6--5--6----6--5--6----6--5-----8-
----6----------6----------6--------------------6----------6----------6------6/8---
----------------------------------------------------------------------------------

Verse 2:
-----------------15p13----------------
------------16------------------------
-13---13/15---------------------------
--------------------------------------
--------------------------------------
--------------------------------------

Bridge:
-----11-13-16------11-13----------------------------------------9--------11-----
------------------------------14--13-11-16--18--16\13-13---9-------11-------13--
-10--8--10-13-10---8--10--11---------------------------------10-------12--------
----------------------------------------13--15--13\10-10------------------------
--------------------------------------------------------------------------------
--------------------------------------------------------------------------------

-15--15---------------13--13-13--13-13---12--12-12---
--------16-------------------------------------------
-------------10~/15---10--10-10--10-10---9---9--9----
-----------------------------------------------------
-----------------------------------------------------
-----------------------------------------------------

Solo:
Guitar 1
------------------------------------------------------------------------------15/16-
-------------------------------------------------13----16-13-----16-13-----13-------
-/8---------------------------------6/8--6-5----------------------------------------
-----6--5-6-5-4---------6-8-8/10--6----------8------15--------15--------15----------
-----------------6---/8-------------------------------------------------------------
------------------------------------------------------------------------------------

-15----------------------------------------
----16--------15-17-----15-17---15--15-13--
-------15--15--------15--------------------
-------------------------------------------
-------------------------------------------
-------------------------------------------

Guitar 2
---------------------3/4--3-----------------------------
-----4------4---------------4---------------------------
-5-----5------5----5----------3----3-5----3-5---6--6-5--
---3------3------3---------------3------3---------------
--------------------------------------------------------
--------------------------------------------------------

Outro Solo:
Guitar 1
--------------------------------------------------------------------
-----------------------------------4---------------------------4--6-
-5--5-3h5p3---3--------5-3h5p3---3---6-5--5-3h5p3---3-------5------- (x2)
------------6---6-3-6----------6------------------6---6-3-6---------
--------------------------------------------------------------------
--------------------------------------------------------------------

Guitar 2
---------------------------------------------------11----------------------------------------11--13-
-13--13-11h13p11----11-----------13-11h13p11----11----14-13--13-11h13p11----11-----------13--------- (x2)
-----------------13----13-10-13--------------13--------------------------13----13-10-13-------------
----------------------------------------------------------------------------------------------------
----------------------------------------------------------------------------------------------------
----------------------------------------------------------------------------------------------------

Transcribed by,
tsunvun86 @ SCANDAL HEAVEN
Advertisements

Written by tsunvun86

February 6, 2011 at 10:13 pm

Posted in Chords & Tabs, SCANDAL

Tagged with , , , , , ,

One Response

Subscribe to comments with RSS.

  1. Hello, thanks for the tab !

    I think there is missing chord on the pre-chorus,

    try C# Eb Cm Fm

    oTher than that, i think everything should be OK !, difficult to play.. i am such a beginner >_<

    THanks !

    Ei

    February 28, 2011 at 11:46 pm


Leave a Reply

Fill in your details below or click an icon to log in:

WordPress.com Logo

You are commenting using your WordPress.com account. Log Out / Change )

Twitter picture

You are commenting using your Twitter account. Log Out / Change )

Facebook photo

You are commenting using your Facebook account. Log Out / Change )

Google+ photo

You are commenting using your Google+ account. Log Out / Change )

Connecting to %s

%d bloggers like this: