Know Music, Know Life

tsunvun86's Guitar Chords & Tabs

SCANDAL – CUTE! [Chords & Tabs]

with 2 comments


SCANDAL - CUTE

C#/F - 143121 OR 14xxxx(POWER)
Bb/D - X5333X OR 58xxxx(POWER)
t - tapping
alt.pick - alternate picking


Intro:
Eb (x3) )
G#      } (x2)
C#

Verse:
Eb G Cm Bbm Eb )
G# G#m Gm Cm   } (x2)
Fm G# Eb       )

Pre-Chorus:
B Eb
B
Bb B C#

Chorus:
F# C#/F Ebm B
Bbm Bb/D Ebm
G#m C#
F# C#/F Ebm B
Bbm Bb/D Ebm E
G#m C#

Instrumental:
Eb (x3)
G#
Eb (x3)
G# C#

Verse:
Eb G Cm Bbm Eb
G# G#m Gm Cm
Fm G# Eb

repeat Pre-Chorus

repeat Chorus

Solo:
B Eb
B
Bb B C#

Chorus 2:
F# C#/F Ebm B )
Bbm Bb/D Ebm  } (x2)  
G#m C#        )
F# C#/F Ebm C# B
Bbm Bb/D Ebm E
G#m Bbm B C#

Outro:
Eb (x3) )
G#      } (x4)
Eb



Intro:
-----------------------------------------------------      ---
-----------------------------------------------------      ---
-8--8--8-8--8--8--8-8-8-8-8-8--8--8-8----------------      -6-
-8--8--8-8--8--8--8-8-8-8-8-8--8--8-8--6--6--6------- (x2) -6-
-6--6--6-6--6--6--6-6-6-6-6-6--6--6-6--6--6--6-3-4-3-      -4-
---------------------------------------4--4--4-------      ---


Verse:
 Eb      G       Cm     Bbm     Eb       G#      G#m     Gm
---     ---     ---     ---     ---     ---     ----    ---
---     ---     -4-     ---     -4-     ---     -4-     -3-
-8-(x8) -4-(x8) -5-(x8) -6-(x4) -6-(x4) -5-(x4) -4-(x4) -3-(x4)
-8-     -5-     -5-     -8-     ---     -6-     -6-     -5-
---     ---     ---     ---     ---     ---     ---     ---
---     ---     ---     ---     ---     ---     ---     ---

 Cm      Fm       alt.pick
---     ----     --------------------------------------------
-4-     ----     ---------------8-9-8--------8-9-8-----------
-5-(x4) -10-(x4) ------------8---------8--8------------------
-5-     -10-     -------6--6----5-6-5--------5-6-5-----------
---     ----     -------6--6-6---------6--6------------------
---     ----     -15\6--4--4---------------------------------

-------------------------------------------------------------
-11-9-8-----------------6----------16\15-15\13-13\11-11--10--
--------10-8-7--------7----8-10-8----------------------------
-----------------9--9--------------13\12-12\10-10\8--8---8---
-------------------------------------------------------------
-------------------------------------------------------------
                                         alt.pick
------------------------------7--8---------------------------
-------------------------------------9-----------------8-9-8-
-10--8--6--5------------------4--5---10-------------8--------
--------------6-8-9--6-6-6-5---------10--------6--6----5-6-5-
-8---6--4--3-----------------------------------6--6-6--------
-----------------------------------------15\6--4--4----------

-11--11--9\8--8\6--6---
-----------------------
-8---8---6\5--5\3--3---
-----------------------
-----------------------
-----------------------


Pre-Chorus:
----------------------------------------------------
----------------------------------------------------
---------4/8-8--8b10b8------------------------------
-------4----------------------4/9-9---3--3-3-3-3----
-2/6-6------------------2/6-6---------1--1-1-1-1----
----------------------------------------------------

----------------------------------------------------
----------------------------------------------------
----------------------------------------------------
-----4--4-4-4-4-----6-------------------------------
---1-2--2-2-2-2-1-2-4-------------------------------
-4--------------------------------------------------


Instrumental:
-----------------------------------------------------
-----------------------------------------------------
-8--8--8-8--8--8--8-8-8-8-8-8--8--8-8----------------
-8--8--8-8--8--8--8-8-8-8-8-8--8--8-8--6--6--6------- (x2)
-6--6--6-6--6--6--6-6-6-6-6-6--6--6-6--6--6--6-3-4-3-
---------------------------------------4--4--4-------


Verse 2:
 Eb                               G
-----11----11----13----11----11-------10----10-----13-13-13-13-
---11--11----11----11----11----11---12--12----12---------------
-12------12----12----12----12-----10------10----10-10-10-10-10-
---------------------------------------------------------------
---------------------------------------------------------------
---------------------------------------------------------------

---------------------------------------------------------------
-8---11-11--11--11--11--11--11--11--11--11---------------------
-8---8--8---8---8---8---8---8---8---8-------10--8--6--5--------
-10-------------------------------------8----------------6-8-9-
--------------------------------------------8---6--4--3--------
---------------------------------------------------------------
                     alt.pick
----------7--8----------------------------11--11--9\8--8\6--6--
-----------------9-----------------8-9-8-----------------------
----------4--5---10-------------8---------8---8---6\5--5\3--3--
-6-6-6-5---------10--------6--6----5-6-5-----------------------
---------------------------6--6-6------------------------------
---------------------15\6--4--4--------------------------------


Solo:
Guitar 1
-------------------------------------------------------
-------------------------------------------------------
-------4/8-8/12-12--12b13b12---------4/8-8-------------
-1/4-4-------------------------1/4-4-------------------
-------------------------------------------------------
-------------------------------------------------------

-------------------------------------------------------
-t11p6(repeat)---t12p7(repeat)---t14p9(repeat)---------
-------------------------------------------------------
-------------------------------------------------------
-------------------------------------------------------
-------------------------------------------------------

Guitar 2
-------------------------------------------------------
-------------------------------------------------------
---------4/8-8--8b10b8---------------------------------
-------4-----------------------4/9-9-------------------
-2/6-6-------------------2/6-6-------------------------
-------------------------------------------------------


Outro:
-----------------------------------------------------      ---
-----------------------------------------------------      ---
-8--8--8-8--8--8--8-8-8-8-8-8--8--8-8----------------      -8-
-8--8--8-8--8--8--8-8-8-8-8-8--8--8-8--6--6--6------- (x4) -8-
-6--6--6-6--6--6--6-6-6-6-6-6--6--6-6--6--6--6-3-4-3-      -6-
---------------------------------------4--4--4-------      ---



Transcribed by,
tsunvun86 @ SCANDAL HEAVEN
Advertisements

Written by tsunvun86

January 28, 2011 at 9:40 pm

2 Responses

Subscribe to comments with RSS.

  1. […] This post was mentioned on Twitter by Setyo Adhie and tsunvun, tsunvun. tsunvun said: SCANDAL – CUTE Chords & Tabs http://tinyurl.com/4ax4q22 #scandal #scandal_heaven […]

  2. i really like your cover but i don’t undersatnd the solo T.T

    Jana Wolff

    March 24, 2011 at 1:06 am


Leave a Reply

Fill in your details below or click an icon to log in:

WordPress.com Logo

You are commenting using your WordPress.com account. Log Out / Change )

Twitter picture

You are commenting using your Twitter account. Log Out / Change )

Facebook photo

You are commenting using your Facebook account. Log Out / Change )

Google+ photo

You are commenting using your Google+ account. Log Out / Change )

Connecting to %s

%d bloggers like this: