Know Music, Know Life

tsunvun86's Guitar Chords & Tabs

miwa – Otoshimono [Chords & Tabs]

leave a comment »


miwa - Otoshimono

Am7 - x02010
G/B - x20033
C/E - 032010
Esus4 - 022200
D/F# - 200232 or just play D
E/G# - 422100 or just play E

Intro:
C Em F E7
Am7 G F G
C

Verse:
C G/B Am7 G
F C/E Dm G
C G/B Am7 G C
F C/E Dm G

Pre-Chorus:
F G Am7
F E7 Am7 G
F G E7 Am7
Dm Esus4 E

Chorus:
Am7 Em     )
F G C G/B  } (x3)
Am7 G D/F#
Dm Em F
G

Instrumental:
C Em F E7
Am7 G F G

repeat Verse

repeat Pre-Chorus

Chorus 2:
Am7 Em
F G C G/B
Am7 G F Em
F G C G/B
Am7 Em
F G C G/B
Am7 G D/F#
Dm Em F
G

Solo:
Am E/G# G D/F#
F D/F# G G E/G#
Am E/G# G D/F#
F G

Bridge:
F C/E G Am7 (x2)
Dm Em
F Am7
Dm G

repeat Chorus

E/G#

repeat Chorus 2

Outro:
Am7 G F C/E
Dm G C

Solo:
-----------------------------------------------------------------
-5----5--------------------------13--15-13-15b17-15b17b15-13-----
-7b9--7b9b7p5-7------------12-14---------------------------------
----------------6-6---/14----------------------------------------
-----------------------------------------------------------------
-----------------------------------------------------------------

-------------------------------------------7-----7---------------
-18\13-13\10-10\6-6--19\15-15\10 10\7-7-8--10b12-10b12-----------
---------------------------------------------------------9-------
-----------------------------------------------------------------
-----------------------------------------------------------------
-----------------------------------------------------------------

-----------------------------------------------------------------
-8h10-10--10-10-10\9-9--9-9-9\8-8--8-8-8\7-7----------------8-10-
--------------------------------------------------5-5---5/9------
-----------------------------------------------/7-----7----------
-----------------------------------------------------------------
-----------------------------------------------------------------

-8-10b12b10p8--10b12-10b12b10p8-10-------15----15b17~~b15--------
-----------------------------------------------------------------
-------------------------------------/12----12-------------------
-----------------------------------------------------------------
-----------------------------------------------------------------
-----------------------------------------------------------------

Transcribed by,
tsunvun86 @ little-miwa.com
Advertisements

Written by tsunvun86

December 10, 2010 at 12:59 pm

Leave a Reply

Fill in your details below or click an icon to log in:

WordPress.com Logo

You are commenting using your WordPress.com account. Log Out / Change )

Twitter picture

You are commenting using your Twitter account. Log Out / Change )

Facebook photo

You are commenting using your Facebook account. Log Out / Change )

Google+ photo

You are commenting using your Google+ account. Log Out / Change )

Connecting to %s

%d bloggers like this: