Know Music, Know Life

tsunvun86's Guitar Chords & Tabs

SCANDAL – Koibito ga Santa Claus [Chords & Tabs]

with one comment


SCANDAL - Koibito ga Santa Claus

**Tabs are for parts where there are riffs and licks. Fill gaps with chords where
appropriate.

C#m/Bb - 6x665x  or x123xx(power)
G/5-(no3) - 123xxx
Eb/G - 36xxxx(power)
C#/F - 14xxxx(power)

Intro:
G#m E Ebm C#m E G/5-(no3)
G#m E Ebm C#m F#

Verse:
E F# (x2)
Ebm G#m (x2)
C#m7 E A F#
E F# (x2)
Ebm G#m (x2)
C#m7 A Eb

Chorus:
E Ebm C#m
B C#m/Bb Eb
E Ebm C#m
B C#m Ebm
G#m7

Verse 2:
E F# (x2)
Ebm G#m (x2)
C#m7 A Eb

Solo:
E Ebm
C#m F# G/5-(no3) G#m
E Ebm D
C#m7 Eb

Verse 3:
Ebm G#m (x2)
C#m7 A Eb

Chorus 2:
E Ebm C#m
B C#m/Bb Eb
E Ebm C#m
B C#m Eb
G#m Eb/G F# C#/F

repeat Chorus 2

E F#

Outro:
G#m E Ebm C#m E G/5-(no3)
G#m E Ebm C#m F#
B

#########################################################################################
INTRO SOLO:
Guitar 1
-x-------------------------------------------------------------
-x------12-12-12-12-12-12-12-11\9---12-12-12-12-12-12-12-------
-x-3/11--------------------------------------------------11\9--
-x-------------------------------------------------------------
-x-------------------------------------------------------------
-x-------------------------------------------------------------

--------------------------------------------------16-14--------
-12-12-12-12-12-12-12-11\9---12-12-12-12-12-12-12--------------
---------------------------------------------------------------
---------------------------------------------------------------
---------------------------------------------------------------
---------------------------------------------------------------

Guitar 2
-x-x-x-----------------------------------------------------------
-x-x-x-----------------------------------------------------------
-x-x-x-----------------------------------------------------------
-x-x-x-9-9-9-9-9-9-9-8\6---9-9-9-9-9-9-9-------9-9-9-9-9-9-9-8\6-
-x-x-x-----------------------------------9\7---------------------
-x-x-x-----------------------------------------------------------

-------------------12-11--------------------------------------
--------------------------------------------------------------
--------------------------------------------------------------
-9-9-9-9-9-9-9-8\6--------------------------------------------
--------------------------------------------------------------
--------------------------------------------------------------

#########################################################################################
VERSE 1:
Guitar 1
 0:22     0:28   0:36          0:42                0:48                      0:55          
---------------------------------------------------14-14-14------------------14----------
-------------------------------14-14-14----14-----------------------------------12-12-12-
------------------------------------------------------------11-11-11-11-11---------------
----------------------------------------11----11--------------------------------9--9--9--
-----------------------------------------------------------------------------------------
-6b7b6----6b7b6--7--9--11--9-------------------------------------------------------------

               1:03       1:06
--------------------------------------------------------------
-12-12-12-12--------------------------------14--14-14---------
--------------------------8--10--13-12--12--------------------
-9--9--9--9---------------------------------11--11-11---------
--------------------------6--8---11-10--10--------------------
---------------7--9--11---------------------------------------

Guitar 2
 0:36                    0:44                            0:47
-----------------------------------------------------------------------------------------
-------------------------7-x-x-7-x-x-7-x-x-x-x-x-x-x-x-x-7-x-x-7-x-x-7-x-x-x-x-x-x-x-x-x-
-6---9---14------------------------------------------------------------------------------
-----------------------------------------------------------------------------------------
-4---7---12------------------------------------------------------------------------------
--------------5-4-3-2--------------------------------------------------------------------

 0:50                            0:53            1:03      1:06
-----------------------------------------------------------------------------------------
-7-x-x-7-x-x-7-x-x-7-x-x-7-x-7-x-7-x-x-7-x-x-7-------------------------------14--14-14---
-------------------------------------------------4--6--8---8--10--13-12--12--------------
-----------------------------------------------------------------------------11--11-11---
-------------------------------------------------2--4--6---6--8---11-10--10--------------
-----------------------------------------------------------------------------------------

#########################################################################################
CHORUS 1:
Guitar 1
 1:12          1:22             1:26          1:32
----16\14-14---------11b12b11------16\14-14---------------------
-12-----------------------------12------------------------------
------------------12--------------------------12h13p12----------
---------------13--------------------------------------13-------
----------------------------------------------------------------
----------------------------------------------------------------

Guitar 2
 1:10                     1:13   
-------------------------------------------7-7--7-------------
-7--7--7-7--7--7--7-7--7--7--7--7-7--7--7---------------------
--------------------------------------------------------------
-------------------------------------------------------------- (x2)
--------------------------------------------------------------
--------------------------------------------------------------

#########################################################################################
VERSE 2:
Guitar 1
------------------------------------------------------------------------
-9-9-9-9-9--------9-9-9-9-9--------7-7-7-7-7--------7-7-7-7-7-----------
-8-8-8-8-8-8b9b8--8-8-8-8-8-8b9b8--6-6-6-6-6--------6-6-6-6-6-----------
---------------------------------------------8b9b8------------8b9b8----- (x2)
------------------------------------------------------------------------
------------------------------------------------------------------------

 2:00
------------------------------------------------------------------------
------------------------------------------------------------------------
-8--10--13--12--12--8-8-8-----------------------------------------------
------------------------------------------------------------------------
-6--8---11--10--10--6-6-6-----------------------------------------------
------------------------------------------------------------------------

Guitar 2
------------------------------------------------------------------------
------------------------------------------------------------------------
-8b9b8---8b9b8---11b13b11---11b13b11---8b9b8---8b9b8---11b13b11---------
------------------------------------------------------------------------
------------------------------------------------------------------------
------------------------------------------------------------------------

 2:00
------------------------------------------------------------------------
------------------------------------------------------------------------
-8--10--13--12--12--8-8-8-----------------------------------------------
------------------------------------------------------------------------
-6--8---11--10--10--6-6-6-----------------------------------------------
------------------------------------------------------------------------

#########################################################################################
SOLO:
Guitar 1
-----------------------------------------------------------------------------------------
------16-16-16-16-16-16-16-16-14\12-------16-16-16-16-16-16-16-16-16/17\16--16-16-16-16--
-----------------------------------------------------------------------------------------
-4/13-13-13-13-13-13-13-13-13-11\9---4/13-13-13-13-13-13-13-13-13-13/14\13--13-13-13-13--
-----------------------------------------------------------------------------------------
-----------------------------------------------------------------------------------------

-----------------------------------------------------------------------------------------
-16-16-16-16-14\12--12--11--12-11-7--7--4--7-14-12---12-12-12-12-12-12-12-12--11\9-------
-----------------------------------------------------------------------------------------
-13-13-13-13-11\9---9---8---9--8--4--4--1--4-11-9----------------------------------------
-----------------------------------------------------------------------------------------
-----------------------------------------------------------------------------------------

-----------------------------------------------------------------------------------------
-12-12-12-12-12-12-12-12--14-14------------9---11--12-12--11-12--12/14-------------------
----------------------------------9---11-------------------------------------------------
-----------------------------------------------------------------------------------------
-----------------------------------------------------------------------------------------
-----------------------------------------------------------------------------------------

#########################################################################################
VERSE 3:
Guitar 1
 2:36       2:40
------------------------------------------------
------------------------------14--14-14---------
------------8--10--13-12--12--------------------
------------------------------11--11-11---------
------------6--8---11-10--10--------------------
-7--9--11---------------------------------------

Guitar 2
 2:36      2:40
-------------------------------------------
-----------------------------14--14-14-----
-4--6--8---8--10--13-12--12----------------
-----------------------------11--11-11-----
-2--4--6---6--8---11-10--10----------------
-------------------------------------------

#########################################################################################
CHORUS 2:
Guitar 1
 2:54             2:59          3:05          3:06
-------11b12b11------16\14-14--------------------------------------------------------
------------------12--------------------------12-12-12-12--12-12--11-11-11-12--12-12-
----12--------------------------12h13p12---------------------------------------------
-13--------------------------------------13---9--9--9--9---9-9----8--8--8--9---9--9--
-------------------------------------------------------------------------------------
-------------------------------------------------------------------------------------

 3:12          3:21             3:25          3:31
----16\14-14---------11b12b11------16\14-14---------------------
-12-----------------------------12------------------------------
------------------12--------------------------12h13p12----------
---------------13--------------------------------------13-------
----------------------------------------------------------------
----------------------------------------------------------------

 3:32
-------------------------------------------------------------
-12-12-12-12--12-12--11-11-11-12--12-12--14~~~/19------------
-------------------------------------------------------------
-9--9--9--9---9-9----8--8--8--9---9--9---11~~~/16------------
-------------------------------------------------------------
-------------------------------------------------------------

Guitar 2
 2:56                     2:59                      3:06
-------------------------------------------7-7--7--------------------------------
-7--7--7-7--7--7--7-7--7--7--7--7-7--7--7-----------9-9-9-8--8-8--7-7-7-6--6-6---
---------------------------------------------------------------------------------
----------------------------------------------------6-6-6-5--5-5--4-4-4-3--3-3---
---------------------------------------------------------------------------------
---------------------------------------------------------------------------------

 3:10                     3:13                           3:32
-------------------------------------------7-7--7-      ----------------------------
-7--7--7-7--7--7--7-7--7--7--7--7-7--7--7---------      -9-9-9-8--8-8--7-7-7-6--6-6-
--------------------------------------------------      ----------------------------
-------------------------------------------------- (x2) -6-6-6-5--5-5--4-4-4-3--3-3-
--------------------------------------------------      ----------------------------
--------------------------------------------------      ----------------------------

#########################################################################################
OUTRO SOLO:
Guitar 1
-------------------------------------------------------------
-/12-12-12-12-12-12-12-12-11\9---12-12-12-12-12-12-12--------
------------------------------------------------------11\9---
-------------------------------------------------------------
-------------------------------------------------------------
-------------------------------------------------------------

--------------------------------------------------16-14-----------
-12-12-12-12-12-12-12-11\9---12-12-12-12-12-12-12----------/14-14-
------------------------------------------------------------------
------------------------------------------------------------------
------------------------------------------------------------------
------------------------------------------------------------------

Guitar 2
-----------------------------------------------------------
-----------------------------------------------------------
-----------------------------------------------------------
-9-9-9-9-9-9-9-8\6---9-9-9-9-9-9-9-------9-9-9-9-9-9-9-8\6-
-----------------------------------9\7---------------------
-----------------------------------------------------------

-------------------12-11-----------------------------------
---------------------------12------------------------------
-------------------------------11--------11----------------
-9-9-9-9-9-9-9-8\6-----------------9-----------------------
-----------------------------------------------------------
-----------------------------------------------------------

Transcribed by,
tsunvun86 @ SCANDAL HEAVEN
Advertisements

Written by tsunvun86

November 28, 2010 at 3:11 am

One Response

Subscribe to comments with RSS.

  1. wow tsunvun….this one is very detailed 😀 u type out the time when it should be played ..nice one!

    Kyn

    December 6, 2010 at 1:15 am


Leave a Reply

Fill in your details below or click an icon to log in:

WordPress.com Logo

You are commenting using your WordPress.com account. Log Out / Change )

Twitter picture

You are commenting using your Twitter account. Log Out / Change )

Facebook photo

You are commenting using your Facebook account. Log Out / Change )

Google+ photo

You are commenting using your Google+ account. Log Out / Change )

Connecting to %s

%d bloggers like this: