Know Music, Know Life

tsunvun86's Guitar Chords & Tabs

ZONE – H.A.N.A.B.I ~Kimi ga Ita Natsu~ [Chords & Tabs]

with one comment


ZONE - H.A.N.A.B.I ~Kimi ga Ita Natsu~

F#sus4 - 244422

Intro:
Bb C Am Dm
Gm Am Bb C
Bb C Am Dm
Bb C Am A

Verse:
D Em F#sus4 F# )
Bm E A         } (x2)

Pre-Chorus:
G A F# Bm
G A Bb C 

Chorus:
Bb C Am Dm )
Gm Am Bb C } (x2)

Instrumental:
Bb C Am A

Verse 2:
D Em F#sus4 F#
Bm E A

repeat Pre-Chorus

repeat Chorus

Solo:
C# Eb
Cm Fm
C# Eb F
Asus4 A

Chorus 2:
Bb C Am Dm )
Gm Am Bb C } (x3)

Dm G Bb C
F

Outro:
Bb C Am Dm (x4)
Bb

Intro Solo
-------------------------------------------10--------
-10----------10----13-10-----------------------------
----12----12----12-------12-10----10-12-10----10-----
-------12----------------------10--------------------
-----------------------------------------------------
-----------------------------------------------------

------------------------------------------------------
-10----------10----13-10------------------------------
----12----12----12-------12-10----10-12-10-9----------
-------12----------------------10------------11-11h12-
------------------------------------------------------
------------------------------------------------------

Instrumental Solo:
------------------------------------------------------
-10----------10----13-10------------------------------
----12----12----12-------12-10----10-12-10-9----------
-------12----------------------10------------11-11h12-
------------------------------------------------------
------------------------------------------------------

Solo:
-------------------------------------------------------
-------------------------------------------------------
-----------------------8-8-8---------------------------
-/10-10-10-8-8-8-10-10-------10-10-10-8-8-8-8-8-6-6-6--
-------------------------------------------------------
-------------------------------------------------------

-------------------------------------------------------
-----------------------------------8-8-------8-8-10-10-
-----8-8-8-------------------8-8-8-----10-10-----------
-8-8-------8-8-8-5-5-5/8-8-8---------------------------
-------------------------------------------------------
-------------------------------------------------------

-----------------------11--------------------11--------
-11-11--11/13-13-11-13----13-11-13--13-11-13----13-11--
-------------------------------------------------------
-------------------------------------------------------
-------------------------------------------------------
-------------------------------------------------------

--------------13--------------------11-----------------
-13--13-11-13----13-11-13--13-11-13----13-11-13--13-11-
-------------------------------------------------------
-------------------------------------------------------
-------------------------------------------------------
-------------------------------------------------------

----13-------------------------------------------------
-13----13-11-13--13-11-13--------15--15-15-15-15-15-15-
----------------------------1/14-14--14-14-14-14-14-14-
-------------------------------------------------------
-------------------------------------------------------
-------------------------------------------------------

-----------------------------------------------------
-14--------------------------------------------------
-14--------------------------------------------------
-----------------------------------------------------
-----------------------------------------------------
-----------------------------------------------------

Outro Solo:
---------------------------6-------------------------
-1/5-5--5-5-5-7-5-4--4-4-4---4-3--3-3-3-2-3-5~/17----
-----------------------------------------------------
-----------------------------------------------------
-----------------------------------------------------
-----------------------------------------------------

-------------------------------------------10--------
-10----------10----13-10-----------------------------
----12----12----12-------12-10----10-12-10----10-----(x4)
-------12----------------------10--------------------
-----------------------------------------------------
-----------------------------------------------------

-8--8----8--8-----------------
-10-10---10-10----------------
-10-10---10-10----------------
------------------------------
------------------------------
------------------------------


Transcribed by,
tsunvun86
Advertisements

Written by tsunvun86

November 5, 2010 at 12:10 am

One Response

Subscribe to comments with RSS.

  1. thnks awesome man ;D

    aaron

    November 6, 2010 at 10:35 pm


Leave a Reply

Fill in your details below or click an icon to log in:

WordPress.com Logo

You are commenting using your WordPress.com account. Log Out / Change )

Twitter picture

You are commenting using your Twitter account. Log Out / Change )

Facebook photo

You are commenting using your Facebook account. Log Out / Change )

Google+ photo

You are commenting using your Google+ account. Log Out / Change )

Connecting to %s

%d bloggers like this: