Know Music, Know Life

tsunvun86's Guitar Chords & Tabs

SCANDAL – Ring! Ring! Ring! [Chords & Tabs]

with one comment


SCANDAL - Ring! Ring! Ring!

Ebm7(no5) - x6x67x

Intro:
Ebm7(no5)
Ebm7(no5) Bb7

Verse:
Eb G#
Eb Bb G#
Bb G#
Eb Bb
Eb G#
Eb Bb G#
Bb G# G#7
Eb Bb

Pre-Chorus:
Cm F
Fm Gm G#m Bb

Chorus:
Eb Fm Gm G# (x2)
Cm Bb G# (x2)
Bb
Eb Fm Gm G# (x3)
Eb Fm Bb

Instrumental:
Ebm7(no5)
Ebm7(no5) Bb7

Verse 2:
Eb7 G#7
Eb7 Bb7 G#7
Bb7 G#7
Eb7 Bb7

Solo:
Eb G#
Eb Bb G#
Bb G#
Eb Bb

repeat Pre-Chorus

Chorus 2:
Eb Fm Gm G# (x2)
Cm Bb G# (x2)
Bb
Eb Fm Gm G# (x3)
Eb Fm Bb
Eb Fm Gm G# (x3)
Eb Fm Bb

Outro:
Ebm7(no5)
Ebm7(no5) Bb7
Ebm7(no5)
Ebm7(no5) Bb7
Eb Bb Eb
Eb7
Eb7

Riff at Pre-Chorus:                         Riff before Chorus:
Guitar 1
------------------------------------        ------------------------
-15b16b15-13b15b13-11b13b11-10~/6---        ------------------------
------------------------------------        ------------------------
------------------------------------        -7b8b7---7b8b7----------
------------------------------------        -------8-------8-6-5-3--
------------------------------------        ------------------------

Guitar 2
------------------------------------        ------------------------
------------------------------------        ------------------------
------------------------------------        ------------------------
-12b13b12-10b12b10-8b10b8-7~/3------        ------------------------
------------------------------------        -5b6b5---5b6b5----------
------------------------------------        -------6-------6-4-3-1-- 

Riff at Chorus:                                        *
-----------------     ------------------------------   -----------------
-8--9---11--13---     -8--6------8--6---------------   -8--9---11--13---
--8--8---10--13--     --8--7------8--7-------------    --8--8---10--13--
---8--10--12--13-(x2) ---8--8--6---8--8--6--6--8-8--   ---8--10--12--13-(x3)
-----------------     ---------6---------6--6--8-8--   -----------------
-----------------     ---------4---------4--4--6-6--   -----------------     

-------------
-8--9--------
--8--8-------
---8--10--6--  (at Chorus 2, repeat from * again once)
----------6--
----------4--

Solo:
----------------------------------------------------------------------------------------------------
----------------------------------------------------------------------------------------------------
-10b12~12~12~12b10p8-10b12-8---10b11~11~11~11b10p8-10b11-8-------8-----10b12~12~12~12b10p8-10b12-8--
------------------------------------------------------------8-10---8--------------------------------
----------------------------------------------------------------------------------------------------
----------------------------------------------------------------------------------------------------

----------------------------------------------------------------------------------------------------
----------------------------------------------------------------------------------------------------
---------------------------------------------------------------------------------------6/7----------
-----------4-6/8-6-6-6-6-6-4---------------4-6/8-6-6-6-6-6-4---6b7~7~7~7~7b6p4----------------------
-------4-6-------------------6-4-------4-6-------------------------------------6-4-6---4/5----------
-6-4-6---------------------------6-4-6--------------------------------------------------------------

Outro Solo:
---------------------------
---------------------------
---------------------------
---------------------------
-6-6-4-4-3-3-------------6-
-------------6b7b6-3-4-6---

Transcribed by,
tsunvun86 @ SCANDAL HEAVEN
Advertisements

Written by tsunvun86

November 5, 2010 at 9:33 pm

One Response

Subscribe to comments with RSS.

  1. Eb? Alright! Not an easy guitar key.

    Nate Dean

    November 19, 2010 at 1:40 pm


Leave a Reply

Fill in your details below or click an icon to log in:

WordPress.com Logo

You are commenting using your WordPress.com account. Log Out / Change )

Twitter picture

You are commenting using your Twitter account. Log Out / Change )

Facebook photo

You are commenting using your Facebook account. Log Out / Change )

Google+ photo

You are commenting using your Google+ account. Log Out / Change )

Connecting to %s

%d bloggers like this: