Know Music, Know Life

tsunvun86's Guitar Chords & Tabs

SCANDAL – Kagerou [Chords & Tabs]

with one comment


SCANDAL - Kagerou

C#sus4 - x46674
Bsus4 - x24452
Dsus4 - x57785

Intro:
C#sus4 Bsus4 (x4)

Verse:
A
B C# C#sus4 C# C#sus4
A F#m G#
B C# C#sus4 C# C#sus4
A B C# (x3)
A B

Chorus:
A B G# C#m (x3)
A B G# C#m D

Instrumental:
C#sus4 Bsus4 (x2)

Verse 2:
A
B C# C#sus4 C# C#sus4
A F#m G#
B C# C#sus4 C# C#sus4
A B C# (x3)
D G#

Chorus 2:
A B G# C#m (x3)
A B G# C#m B
A B G# C#m
A B G# C#m D
A B G# C#m
D Eb G#
C# B C# (alternate repeatedly, follow pattern in song)

A B G# C#m (x4)

Chorus 3:
A B G# C#m
A B G# C#m D
A B G# C#m
A B G# C#m B
A B G# C#m
A B G# C#m B

Outro:
C#sus4 Bsus4
C#sus4 Dsus4

Riff at Verse:
----------------------
----------------------
-----4---6---4--------
---6---6---6---6-4-6--
-4--------------------
----------------------

Plucking at Chorus 1:
-------------7-------4-------4----     -------------7-------4-------5-5--
-----5---------7-------4-------5--     ----5----------7-------4-----7-7--
-------6---8---------------6------(x3) ------6----8---------------6-7-7--
---7---------------6--------------     --7----------------6---------7-7--
-------------------------4--------     -------------------------4---5-5--
-5-------7-------4----------------     -5-------7-------4----------------

Plucking at Chorus 2:
-------------7-------4-------4----     -------------7-------4-------5-5--
-----5---------7-------4-------5--     ----5----------7-------4-----7-7--
-------6---8---------------6------(x3) ------6----8---------------6-7-7--
---7---------------6--------------     --7----------------6---------7-7--
-------------------------4--------     -------------------------4---5-5--
-5-------7-------4----------------     -5-------7-------4----------------

Riff at Chorus 3:
-5-4-2---------------------2-4---4----------------------------------------
-------5-4-2-------1-2-4-5-----5---5-4-2----------------------------------
-------------4-2-1-----------------------4-2-1-2-1-2-1--------------------
-------------------------------------------------------4------------------
--------------------------------------------------------------------------
--------------------------------------------------------------------------

-5-4-2---------------------2-4---4-------------------------2-4-----------
-------5-4-2-------1-2-4-5-----5---5-4-2-----------------5-----5---------
-------------4-2-1-----------------------4-2-1-2-1-2-1-2----------------- (x2)
-------------------------------------------------------------------------
-------------------------------------------------------------------------
-------------------------------------------------------------------------

-5-4-2---------------------2-4---4----------------------------------------
-------5-4-2-------1-2-4-5-----5---5-4-2-----------------2-4-5-4----------
-------------4-2-1-----------------------4-2-1-2-1-2-1--------------------
-------------------------------------------------------4------------------
--------------------------------------------------------------------------
--------------------------------------------------------------------------

Transcribed by,
tsunvun86 @ SCANDAL HEAVEN
Advertisements

Written by tsunvun86

November 2, 2010 at 1:59 pm

One Response

Subscribe to comments with RSS.

  1. Merci beaucoup ! =3

    Tydu

    November 9, 2010 at 9:41 am


Leave a Reply

Fill in your details below or click an icon to log in:

WordPress.com Logo

You are commenting using your WordPress.com account. Log Out / Change )

Twitter picture

You are commenting using your Twitter account. Log Out / Change )

Facebook photo

You are commenting using your Facebook account. Log Out / Change )

Google+ photo

You are commenting using your Google+ account. Log Out / Change )

Connecting to %s

%d bloggers like this: