Know Music, Know Life

tsunvun86's Guitar Chords & Tabs

SCANDAL – Everybody Say Yeah [Chords & Tabs]

with one comment


SCANDAL - EVERYBODY SAY YEAH

Bb/D - x5333X

Intro:
Fm Bb (x2)
Fm Eb Bb/D C# (x2)

Verse:
Fm G# Bb Fm (x2)
G# Bb
G# Fm G# Fm
Eb G# Fm
G# Bb
C

Chorus:
Fm G# Bb/D C# Eb (x2)

Instrumental:
Fm G#        )
Bb G# Bb Fm  } (x2)

Verse 2:
Fm G# Bb Fm (x2)
G# Bb
Fm
G# Bb
C

repeat Chorus

Solo:
Fm G# Bb C# Eb (x2)

Bridge:
C# Cm Bb (x2)
C

Fm Bb (x4)

repeat Chorus

Outro:
Fm G# Bb G# Bb Fm (x4)
Fm Eb Bb/D C# (x2)
Fm

Intro/Outro Solo:

Guitar 1
------------------------------------------------------------------------
------------------------------------------------------------------------
---------------3/5-3--3/5-3--3/5-3-----------------3/5-3--3/5-3--3/5-3--
---------------3/5-3--3/5-3--3/5-3-----------------3/5-3--3/5-3--3/5-3--
---------------1/3-1--1/3-1--1/3-1-----------------1/3-1--1/3-1--1/3-1--
-1-1-3b4-1-1-------------------------1-1-3b4-1-1------------------------
(Outro solo starts here...)
------------------------------------------------------------------------
-/9-8-----------------------------/9-8-------------------------9--------
------8-10----------------8--10--------8 10---------------8-10---10-----
-------------------8--10----------------------------8--10---------------
------------8--11----------------------------8--11----------------------
------------------------------------------------------------------------

--------------------------------------------------------------------------
-/9-8---------------------------------------------------------------------
------8-10----------------8--10---3b5-3b5~5b3-1-3-1--3b4-3b4~4b3-1--------
-------------------8--10-------------------------------------------3------
------------8--11---------------------------------------------------------
--------------------------------------------------------------------------

Guitar 2
(Outro solo starts here...)
-/16-15---------------------------------/16-15-----------------------------16-----
--------16-18------------------16--18----------16-18-----------------16-18----18--
-----------------------15--17---------------------------------15--17--------------
---------------15--18---------------------------------15--18----------------------
----------------------------------------------------------------------------------
----------------------------------------------------------------------------------

-/16-15----------------------------------------------------------------------------------
--------16-18------------------16--18---11b13-11b13~13b11-9-11-9--11b12-11b12~12b11-9----
-----------------------15--17---------------------------------------------------------10-
---------------15--18--------------------------------------------------------------------
-----------------------------------------------------------------------------------------
-----------------------------------------------------------------------------------------

Solo:
-----------------------------------------------------------11-------------------------------
---------------------------------------------------9-11b13~~~~13b11--11-9-11-11b13b11b13b11-
-13-13-x-13-x-13-13--13-13-x-13-x-13-13-------8p10------------------------------------------
-----------------------------------------8p10-----------------------------------------------
-11-11-x-11-x-11-11--11-11-x-11-x-11-11-----------------------------------------------------
--------------------------------------------------------------------------------------------

-----16-15----16-15-------18-16----18-16----18-16----20-18-----20-18---
-/13-------13-------13/16-------16-------16-------16--------16---------
-----------------------------------------------------------------------
-----------------------------------------------------------------------
-----------------------------------------------------------------------
-----------------------------------------------------------------------

------------------------------------20--
----------------------------------------
-10-10-10-12-12-12-12-13-13-13-15-------
----------------------------------------
----------------------------------------
----------------------------------------

Transcribed by,
tsunvun86 @ SCANDAL HEAVEN
Advertisements

Written by tsunvun86

October 14, 2010 at 12:33 pm

One Response

Subscribe to comments with RSS.

  1. I Will To Follow Your Blog But I could not find the facebook widget

    mirna

    October 19, 2010 at 4:01 pm


Leave a Reply

Fill in your details below or click an icon to log in:

WordPress.com Logo

You are commenting using your WordPress.com account. Log Out / Change )

Twitter picture

You are commenting using your Twitter account. Log Out / Change )

Facebook photo

You are commenting using your Facebook account. Log Out / Change )

Google+ photo

You are commenting using your Google+ account. Log Out / Change )

Connecting to %s

%d bloggers like this: