Know Music, Know Life

tsunvun86's Guitar Chords & Tabs

YUI – Sea [Chords & Tabs]

leave a comment »


YUI - Sea

Intro:
C
C

e-----------------------------------------------
B-1-3-1-0--3-1-------------1-3-1-0--3-1---------
G-0-------------0-0h2-0----0------------0-0h2-0-
D-----------------------------------------------
A-----------------------------------------------
E-----------------------------------------------

Verse:
C G F G 
Am G F G
Bb F C G F 
F

Chorus:
C G F G 
Am G F G
C G F G 
Am G F G

C

e-----------------------
B-1-3-1-0--3-1----------
G-0-------------0-0h2-0-
D-----------------------
A-----------------------
E-----------------------

repeat Verse

repeat Chorus

Bridge
F G Am C (x2)
G G G G
G G

Solo:
C G F G
Am G F G

e---------------------------------------------------------
B----------------------------6/8-6-5b6b5------------------
G-----5---5-7-7b8b7p5-7---5--------------5--5--4-5-5h7-5--
D-5/7---7---------------7---------------------------------
A---------------------------------------------------------
E---------------------------------------------------------

e------------8---------------------------------------
B----------------------------------------------------
G-----5--7b9---7b9b7-5-------------------------------
D-5/7------------------------------------------------
A----------------------------------------------------
E----------------------------------------------------

repeat Chorus

C G F G (x2)

Outro:
C
C

e-----------------------
B-1-3-1-0--3-1----------
G-0-------------0-0h2-0-
D-----------------------
A-----------------------
E-----------------------

C


Transcribed by,
tsunvun86 @ YUI-Lover Forum & Fansite
Advertisements

Written by tsunvun86

October 6, 2010 at 1:28 pm

Posted in Chords & Tabs, Guitar Cover, YUI

Tagged with , , , , ,

Leave a Reply

Fill in your details below or click an icon to log in:

WordPress.com Logo

You are commenting using your WordPress.com account. Log Out / Change )

Twitter picture

You are commenting using your Twitter account. Log Out / Change )

Facebook photo

You are commenting using your Facebook account. Log Out / Change )

Google+ photo

You are commenting using your Google+ account. Log Out / Change )

Connecting to %s

%d bloggers like this: