Know Music, Know Life

tsunvun86's Guitar Chords & Tabs

YUI – es.car [Chords & Tabs]

leave a comment »


YUI - es.car

C#sus4 - x46674

Intro:
C#sus4
C#m B A
F# G#
C#m B A
F# G#

Verse:
C#m A G#m F#m (x2)
A G#m F#m (x2)
G#

Chorus:
C#m B A F#
C#m B A F# G#

Instrumental:
C#m B A
F# G#
C#m B A
F# G#

repeat Verse

repeat Chorus

C#m

Instrumental (Piano Solo):
C#m B A
F# G#
C#m B A

Bridge:
C D Em G (x3)
C A
F#m G#

Chorus 2:
C#m B F# A
C#m B A G#

repeat Chorus

Outro:
C#m B A
F# G#
C#m B A
F# G#
C#m


Intro/Instrumental Solo:
-------------------------------------------
-----------10/12-10-9----------------------
------9---------------11b13b11p9-11--11b13-
-/11----11---------------------------------
-------------------------------------------
-------------------------------------------

-------------------------------------------
-----------10/12-10-9----------------------
------9---------------11b13b11p9-11--9-----
-/11----11---------------------------------
-------------------------------------------
-------------------------------------------

Outro Solo:
----------------------------------------------------------
-----------10/12-10-9-------------------------------------
------9---------------11b13b11p9-11--11b13~~~~-11b13b11-9-
-/11----11------------------------------------------------
----------------------------------------------------------
----------------------------------------------------------

-------------------------------------------
-----------10/12-10-9----------------------
------9---------------11b13b11p9-11b13--9--
-/11----11---------------------------------
-------------------------------------------
-------------------------------------------




Transcribed by,
tsunvun86 @ YUI-Lover Forum & Fansite
Advertisements

Written by tsunvun86

October 6, 2010 at 12:50 am

Posted in Chords & Tabs, YUI

Tagged with , , , , , , , ,

Leave a Reply

Fill in your details below or click an icon to log in:

WordPress.com Logo

You are commenting using your WordPress.com account. Log Out / Change )

Twitter picture

You are commenting using your Twitter account. Log Out / Change )

Facebook photo

You are commenting using your Facebook account. Log Out / Change )

Google+ photo

You are commenting using your Google+ account. Log Out / Change )

Connecting to %s

%d bloggers like this: