Know Music, Know Life

tsunvun86's Guitar Chords & Tabs

YUI – Cinnamon [Chords & Tabs]

leave a comment »


YUI - Cinnamon

Intro:
G A Bm D (x2)

Verse:
G A Bm D (x4)

Chorus:
G A Bm D (x4)

repeat Verse

repeat Chorus

Bridge:
C G
C Bm

repeat Chorus

Outro:
G A Bm D (x2)
G

Intro Solo:
Guitar 1
------------------------------------------------
-5/7-5-----------------------5/7-5--------------
--------7-6-----4--6-7/2-2----------7-6--6--7---
-------------7----------------------------------
------------------------------------------------
------------------------------------------------
Guitar 2
------------------------------------------------
-9/10-9-7--------------------9/10-9--7------7---
----------9--6-7-----------------------9--9-----
------------------9-11/7-7----------------------
------------------------------------------------
------------------------------------------------

Chords & Tabs by,
tsunvun86 @ YUI-Lover Forum & Fansite
Advertisements

Written by tsunvun86

October 6, 2010 at 12:55 am

Posted in Chords & Tabs, YUI

Tagged with , , , , , , , ,

Leave a Reply

Fill in your details below or click an icon to log in:

WordPress.com Logo

You are commenting using your WordPress.com account. Log Out / Change )

Twitter picture

You are commenting using your Twitter account. Log Out / Change )

Facebook photo

You are commenting using your Facebook account. Log Out / Change )

Google+ photo

You are commenting using your Google+ account. Log Out / Change )

Connecting to %s

%d bloggers like this: