Know Music, Know Life

tsunvun86's Guitar Chords & Tabs

YUI – Muffler [Chords & Tabs]

leave a comment »


YUI - Muffler

Intro:
G D C (x2)

Verse:
G D C (x4)
Em G7 Am7 D (x2)

Chorus:
G Am7 C D (x4)

Instrumental:
G D C (x2)

repeat Verse

repeat Chorus

G7 A

Bridge:
Bm Am7 G G7
B7 Am7 C D

repeat Chorus (x2)

Outro:
G D C (x4)
G

Intro/Instrumental Solo:

Guitar 1
-------------------------------------------------------------------
-------------------------------------------------------------------
------------------5-4--------------------7h9-7---------------------
-----5---5--4-5-7-----5-------3/5--4-5-7-------8-7------5----------
-5h7---7----------------7-5-------------------------5h7---7-7/10---
-------------------------------------------------------------------

Outro Solo:

Guitar 1
-------------------------------------------------------------------
-------------------------------------------------------------------
------------------5-4--------------------7h9-7---------------------
-----5---5--4-5-7-----5-------3/5--4-5-7-------8-7------5---5------
-5h7---7----------------7-5-------------------------5h7---7--------
-------------------------------------------------------------------

--------------------------------------------------------
--------------------------------------------------------
-------5-4--------------------7h9-7---------------------
-4-5-7-----5-------3/5--4-5-7-------8-7------5---5------
-------------7-5-------------------------5h7---7--------
--------------------------------------------------------



Chords & Tabs by,
tsunvun86 @ YUI-Lover Forum & Fansite
Advertisements

Written by tsunvun86

September 19, 2010 at 3:08 pm

Posted in Chords & Tabs, YUI

Tagged with , , , , ,

Leave a Reply

Fill in your details below or click an icon to log in:

WordPress.com Logo

You are commenting using your WordPress.com account. Log Out / Change )

Twitter picture

You are commenting using your Twitter account. Log Out / Change )

Facebook photo

You are commenting using your Facebook account. Log Out / Change )

Google+ photo

You are commenting using your Google+ account. Log Out / Change )

Connecting to %s

%d bloggers like this: