Know Music, Know Life

tsunvun86's Guitar Chords & Tabs

[K-ON!!] HO-KAGO TEA TIME – Tenshi ni Fureta yo! TV Size [Chords & Tabs]

with 7 comments


**Click here for the whole song

HO-KAGO TEA TIME - Tenshi ni Fureta yo! TV Size

F/A - x03211 or x032xx(power chord)
Bb/D - x5333x or x58xxx(power chord)

Intro:
Bb F Gm F Eb
F

Verse:
Bb F D Gm F Eb F F/A
Bb F D Gm F Eb F
Bb

Pre-Chorus:
Eb F Dm7 Gm
Cm Dm7 Eb F F/A

Chorus:
Bb F Gm F
Eb F Dm Gm
Cm F F/A
Bb F D Gm F
Eb F Dm G7
Cm F
Bb

Bridge:
Eb F D Gm F
Eb Bb/D Cm Bb
Cm D
F

repeat Chorus

Outro:
Bb F G F Eb
F
Bb

Intro Solo:
-----------------------13--11-10-11-10h11p10-----------------------
----10-11-11/13--11-13-----------------------13-11-10--10-11-13-10-
-10----------------------------------------------------------------
-------------------------------------------------------------------
-------------------------------------------------------------------
-------------------------------------------------------------------

-------------------------------------------------------------------
-------------10-10-------------------------------------------------
-10--10h12---------------------------------------------------------
-------------------------------------------------------------------
-------------------------------------------------------------------
-------------------------------------------------------------------

Lick before Bridge:
-------------------------------------------------------------
-----11-------13-13/15--15-----------------------------------
-------------------------------------------------------------
-/12----12/13----13/15---------------------------------------
-------------------------------------------------------------
-------------------------------------------------------------

Lick at the end of Bridge:
-13-13-x-x-15--15-x-x-17--17-x-x-20--20---------------------
------------------------------------------------------------
-14-14-x-x-15--15-x-x-17--17-x-x----------------------------
------------------------------------------------------------
------------------------------------------------------------
------------------------------------------------------------

Outro Solo:
-----------------------13--11-10-11-10h11p10-----------------------
----10-11-11/13--11-13-----------------------13-11-10--10-11-13-10-
-10----------------------------------------------------------------
-------------------------------------------------------------------
-------------------------------------------------------------------
-------------------------------------------------------------------

-------------------------------------------------------------------
----------10---11--------------------------------------------------
-10--12------------------------------------------------------------
-------------------------------------------------------------------
-------------------------------------------------------------------
-------------------------------------------------------------------

Chords & Tabs by,
tsunvun86
Advertisements

Written by tsunvun86

September 17, 2010 at 12:20 am

7 Responses

Subscribe to comments with RSS.

  1. hi there tsun..nice tab there thanks for all tabs u have shared..anyway can i make request for tab from you?

    ZimTachibana

    October 19, 2010 at 10:32 am

    • Sure. I’ll find time to tab it if it’s a song I’m able to do.

      tsunvun86

      October 19, 2010 at 1:25 pm

  2. […] [K-ON!!] HO-KAGO TEA TIME – Tenshi ni Fureta yo! TV Size Chords & Tabs September 20102 comments 5 […]

    • may i spread your chord??

      eka

      April 15, 2011 at 3:33 am

      • Yes you may 🙂 Linking back to this site would be nice 🙂

        tsunvun86

        April 15, 2011 at 5:26 am

  3. hey i was wondering whats the strumming pattern for it?

    SuperBob

    May 15, 2011 at 12:06 am

  4. i try to do this song with my guitar , but is impossible for me xp

    asnasky69

    July 5, 2011 at 8:44 am


Leave a Reply

Fill in your details below or click an icon to log in:

WordPress.com Logo

You are commenting using your WordPress.com account. Log Out / Change )

Twitter picture

You are commenting using your Twitter account. Log Out / Change )

Facebook photo

You are commenting using your Facebook account. Log Out / Change )

Google+ photo

You are commenting using your Google+ account. Log Out / Change )

Connecting to %s

%d bloggers like this: