Know Music, Know Life

tsunvun86's Guitar Chords & Tabs

SCANDAL – Shoujo S [Chords & Tabs]

leave a comment »


SCANDAL - Shoujo S

Intro:
Ebm G# (x8)

Verse:
Ebm F# G# B (x8)
B F# G# F#
B F# G# Bb

Chorus:
Ebm F# G# B
Ebm F# G# Bb
Ebm F# G# B
Ebm F# G# Bb
B C# Ebm G#
B Bb

Instrumental:
Ebm G# (x4)

Verse 2:
Ebm F# G# B (x4)
B F# G# F#
B G# Bb

SOLO
Ebm Fm F# G# Bb

Chorus 2:
Ebm F# G# B
Ebm F# G# Bb
Ebm F# G# B
Ebm F# G# Bb
B C# Ebm G#
B

Chorus 3:
E G A C
E G A B
E G A C
E G A B
C D Em A
C B

Outro:
Em A (x8)

Intro Solo:
-------------------------------------------------------------------------------------
----16-x-x-14----------------------------------11-x-x-11-13--14--14-13-11--14-13-11--
--------------15-13-11-13-13b14b13-11----------11-x-x-11-13--14--14-13-11--14-13-11--
-13-----------------------------------13-11-13---------------------------------------
-------------------------------------------------------------------------------------
-------------------------------------------------------------------------------------

-----------------------------------------------------------------------------
----16-x-x-14----------------------------------11-x-x-11-13--14--14-13-11----
--------------15-13-11-13-13b14b13-11----------11-x-x-11-13--14--14-13-11----
-13-----------------------------------13-11-13-------------------------------
-----------------------------------------------------------------------------
-----------------------------------------------------------------------------

Instrumental Solo:
------------------------------------------------------------------------
-----------------------------16-x-x-14----------------------------------
-15--15-15-15-13\11--------------------15-13-11-13-13b14b13-11----------
--------------------13-11-13-----------------------------------13-11-13-
------------------------------------------------------------------------
------------------------------------------------------------------------

--------------------------------
-11-x-x-11-13--14--14-13-11--11-
-11-x-x-11-13--14--14-13-11--11-
--------------------------------
--------------------------------
--------------------------------

Solo:
Guitar 1:
----------------------------------
----------------------------------
----------------------------------
-----8-------7--------------------    (x4)
-6-6---6-5-5---5-4-4-4-4-4---4-5--
---------------------------6------

Guitar 2: (After x2 of Guitar 1)
---------------
-8-8-6--5-6-7--
-8-8-6--5-6-7--
---------------    (x2)
---------------
---------------

Riff before Chorus:
--------------------
--------------15----
-----------15-15----
--------12----------
-/13-13-------------
--------------------

Riff before Chorus 3:
--------------------
--------------16----
-----------16-16----
--------13----------
-/14-14-------------
--------------------

Outro Solo:
-------------------------------------------------------------------------------------------------------------
-----------------------------17-x-x-15----------------------------------12-x-x-12-14--15--15-14-12--15-14-12-
-16--16-16-16-14\12--------------------16-14-12-14-14b15b14-12----------12-x-x-12-14--15--15-14-12--15-14-12-
--------------------14-12-14-----------------------------------14-12-14--------------------------------------
-------------------------------------------------------------------------------------------------------------
-------------------------------------------------------------------------------------------------------------

------------------------------------------------------------------------------
----17-x-x-15----------------------------------12-x-x-12-14--15--15-14-12--12-
--------------16-14-12-14-14b15b14-12----------12-x-x-12-14--15--15-14-12--12-
-14-----------------------------------14-12-14--------------------------------
------------------------------------------------------------------------------
------------------------------------------------------------------------------

Chords & Tabs by,
tsunvun86 @ SCANDAL HEAVEN
Advertisements

Written by tsunvun86

September 13, 2010 at 10:06 pm

Leave a Reply

Fill in your details below or click an icon to log in:

WordPress.com Logo

You are commenting using your WordPress.com account. Log Out / Change )

Twitter picture

You are commenting using your Twitter account. Log Out / Change )

Facebook photo

You are commenting using your Facebook account. Log Out / Change )

Google+ photo

You are commenting using your Google+ account. Log Out / Change )

Connecting to %s

%d bloggers like this: