Know Music, Know Life

tsunvun86's Guitar Chords & Tabs

Nakashima Mika – Glamourous Sky (Acoustic Version 2005) [Chords & Tabs]

leave a comment »


Nakashima Mika - Glamorous Sky (Acoustic Version)

Asus2 - x02200
C#sus2 - x46644
Bsus2 - x24422

Intro:
 C#m           B
-4-4-------4---2--
-5---5-----5---4--
-6-----6---6---4--
-6-------6-6---4--
-4---------4---2--
------------------
 E          B          A          B
-0---0------2---2------0---0------2-
-0-----0----4-----4----2-----2----4-
-1-------1--4-------4--2-------2--4-
-2-2--------4-4--------2-2--------4-
-2----------2----------0----------2-
-0----------------------------------
C#m B A (Asus2 A)
B

Verse:
E B A B
C#m B A B
E B A B
C#m B F#m
B

Chorus:
A B C#m G#m
A B C#m (C#sus2 C#m)
A B C#m B
A B

A Asus2 A B Bsus2 B (x2)

Bridge:
C#m G#m A
F#m B

Chorus 2:
A B C#m G#m
A B C#m
A B C#m G#m
A B C#m
A B

-----------------------------------
-----------------------------------
-6-6-6-8-8-8-9-9-9-11-11-11-13-14--
-----------------------------------
-4-4-4-6-6-6-7-7-7-9--9--9--11-12--
-----------------------------------


Chorus 3 / Outro:
A B C#m G#m
A B C#m (C#sus2 C#m)
A B C#m B
A B C#m
A B
C#m


Chords & Tabs by,
tsunvun86 
Advertisements

Written by tsunvun86

September 11, 2010 at 9:27 pm

Leave a Reply

Fill in your details below or click an icon to log in:

WordPress.com Logo

You are commenting using your WordPress.com account. Log Out / Change )

Twitter picture

You are commenting using your Twitter account. Log Out / Change )

Facebook photo

You are commenting using your Facebook account. Log Out / Change )

Google+ photo

You are commenting using your Google+ account. Log Out / Change )

Connecting to %s

%d bloggers like this: