Know Music, Know Life

tsunvun86's Guitar Chords & Tabs

Stereopony – Namida no Mukou~AIMI Acoustic Version~ [Chords & Tabs]

with one comment


Stereo Pony - Namida no Mukou ~AIMI Acoustic Version~

Intro:
F# G# Fm Bbm
Ebm B
Bbm F# G#
Bbm F# F

Verse:
Bbm F# G# (x3)
F# G# Fm Bbm
Ebm B F F

Chorus:
F# G# Fm Bbm
Ebm B
F# F
F# G# Fm Bbm
Ebm B

Instrumental:
Bbm F# G#
Bbm F# F

repeat Verse

Chorus 2:
F# G# Fm Bbm
Ebm B
F# F
F# G#

Solo:
Ebm B F F

Bridge:
Ebm F Bbm Bbm (x2)
Ebm B F F

repeat Chorus

Outro:
Bbm F# G#
Bbm F# F
Bbm F# G#
Bbm F# F
F#


Intro/Instrumental Solo:
-----------------------------------------------------------
---------------------------------------------------------6-
-5-6-5h6p5---6/8--5--6----5-6-5h6p5---6/8--5--6--5h6p5-----
-----------6------------------------6------------------6---
-----------------------------------------------------------
-----------------------------------------------------------

Solo:
-----------------------------------------------------------
-/7--6h7p6--------------------------------8----------10----
-----------6-----------------------------------------------
-------------6--6h8--------------------/8---8--8/10-----10-
---------------------9--8h9p8------------------------------
------------------------------9-9/11-----------------------

----------------------------------------------------
-11-----11--11/13--11/13----------------------------
----------------------------------------------------
-----11-----11/13--11/13----------------------------
----------------------------------------------------
----------------------------------------------------

Outro Solo:
-----------------------------------------------------------
---------------------------------------------------------6-
-5-6-5h6p5---6/8--5--6----5-6-5h6p5---6/8--5--6--5h6p5----- (x2)
-----------6------------------------6------------------6---
-----------------------------------------------------------
-----------------------------------------------------------



Chords & Tabs by,
tsunvun86
Advertisements

Written by tsunvun86

September 10, 2010 at 10:10 pm

One Response

Subscribe to comments with RSS.

  1. lol i didnt knw this song is already tabbed out by you tsun-san -_- hahaha thnks anyway

    Kyn

    January 7, 2012 at 8:18 pm


Leave a Reply

Fill in your details below or click an icon to log in:

WordPress.com Logo

You are commenting using your WordPress.com account. Log Out / Change )

Twitter picture

You are commenting using your Twitter account. Log Out / Change )

Facebook photo

You are commenting using your Facebook account. Log Out / Change )

Google+ photo

You are commenting using your Google+ account. Log Out / Change )

Connecting to %s

%d bloggers like this: