Know Music, Know Life

tsunvun86's Guitar Chords & Tabs

SCANDAL – TOUCH [Animax Music Spring 2010 cover] Chords & Tabs

with one comment


SCANDAL - Touch

F#/Bb - x14322 or x14xxx

Intro:
Bm (x3)
F#

Verse:
Bm Em A D F#
Bm Em F# Bm

Pre-Chorus:
Bm F#/Bb A D
Em Bm C# F#

Chorus:
F# G F# G F#
Em F#
Bm F#/Bb A D
Em F# Bm
F#

Verse 2:
Bm Em F# Bm

Solo:
G A Bm
G A D
G A

Instrumental:
Bm (x3)
F#

repeat Verse

repeat Pre-Chorus

repeat Chorus

repeat Verse

Outro:
G A Bm (x2)
Bm



Intro/Instrumental Solo:
--------------------------------------------------
--------------------------------------------------
--------------------------------------------------
----------4-4-3-4-------4--4-3-4---------4-4-3-4--
-2--2-5-5---------2-2-5----------2-2-5-5----------
--------------------------------------------------


Pre-Chorus Lead:
Em          Bm         C#
-----7----------7------9---9----------------------
-------8----------7----9-----9--------------------
-/9------9----------7--10------10-----------------
------------/9------------------------------------
--------------------------------------------------
--------------------------------------------------


Solo:
------------------------------------------------------------
-15--15--15-14-----15/17--17-17-17-17-15-14--15-14----15/19-
---------------16----------------------------------16-------
------------------------------------------------------------
------------------------------------------------------------
------------------------------------------------------------

--------------------------------------------7-------9-------
-19b20--19--17------------17--19b20b19-19---10b12---12b14---
----------------19-18--19-----------------------------------
------------------------------------------------------------
------------------------------------------------------------
------------------------------------------------------------


Outro Solo:
------------------------------------------------------------
-15--15--15-14-----15/17--17-17-17-17-15-14--15-14----15/19-
---------------16----------------------------------16-------
------------------------------------------------------------
------------------------------------------------------------
------------------------------------------------------------

-----------------------------------------------19--19-19----
-15--15--15-14-----15/17--17-17-17--15-17--19--19--19-19----
---------------16-------------------------------------------
------------------------------------------------------------
------------------------------------------------------------
------------------------------------------------------------


Tabs by,
tsunvun86
Advertisements

Written by tsunvun86

September 9, 2010 at 2:33 am

One Response

Subscribe to comments with RSS.

  1. as awesome as ever!! ^^

    patricia

    October 10, 2010 at 1:19 am


Leave a Reply

Fill in your details below or click an icon to log in:

WordPress.com Logo

You are commenting using your WordPress.com account. Log Out / Change )

Twitter picture

You are commenting using your Twitter account. Log Out / Change )

Facebook photo

You are commenting using your Facebook account. Log Out / Change )

Google+ photo

You are commenting using your Google+ account. Log Out / Change )

Connecting to %s

%d bloggers like this: