Know Music, Know Life

tsunvun86's Guitar Chords & Tabs

[K-ON!!] HO-KAGO TEA TIME – Gohan wa Okazu [Chords & Tabs]

with 4 comments


HO-KAGO TEA TIME - Gohan wa Okazu

Intro:
D     )
A G D } (x2)

Verse:
D A (x2)

Pre-Chorus:
G A F#m Bm
Em E A

Chorus:
G A D (x4)
D
G A D

Instrumental:
D     )
A G D } (x2)

repeat Verse

repeat Pre-Chorus

Chorus 2:
G A D (x4)
D

Bridge:
D (x4)

Solo:
G A (x4)
A

repeat Verse

repeat Pre-Chorus

Instrumental 2:
A

repeat Chorus

Outro:
D     )
A G D } (x4)
D A G A (x2)
D


Intro/Instrumental/Outro Riff:
-----------------------------------------------------------
-----------------------------------------------------------
-11-7-7-7--7-7-7--11--7-7-7--7-7-7--9--9--9--9-11--11-9--7-
-----------------------------------------------------------
-9--5-5-5--5-5-5--9---5-5-5--5-5-5--7--7--7--7-9---9--7--5-
-----------------------------------------------------------


Verse:
-------------------------------------------------
-------------------------------------------------
-7--7-7------7--7-7------9--9-9------------------
--------7-7---------7-7---------7-7--7--7-7--7-7- (x2)
-------------------------------------------------
-------------------------------------------------


Pre-Chorus:
-------------------------------------------------
-10--10-10-10--10--10-10-10-10-10--15--15-15-15--
-------------------------------------------------
-7---7--7--7---7---7--7--7--7--7---12--12-12-12--
-------------------------------------------------
-------------------------------------------------

------------------------------------------5-----7-----9------12-
-10--10-10-10-10-----5----9-----9-------------------------------
--------------11-11--7b9--11b13-11b13--/6---6/7---7/9---9/14----
-7---7--7--7-----12---------------------------------------------
----------------------------------------------------------------
----------------------------------------------------------------


Chorus:
-3--3--5--5--10-10--10--10-10--3--3--5--5/10-10-10--------------
-3--3--5--5--10-10--10--10-10--3--3--5--5/10-10-10--------------
---------------------------------------------------12-10-11-----
------------------------------------------------------------12--
----------------------------------------------------------------
----------------------------------------------------------------

-3--3--5--5/10-10-10--10--10-10-     -10-10--10--10-10-
-3--3--5--5/10-10-10--10--10-10-     -10-10--10--10-10-  
--------------------------------(x2) ------------------(x2)
--------------------------------     ------------------
--------------------------------     ------------------
--------------------------------     ------------------

---------------10-----14--------------------
-8--8--10--10--13b15--17b19-----------------
-7--7--9---9--------------------------------
--------------------------------------------
--------------------------------------------
--------------------------------------------


Chorus 2:
-3--3--5--5--10-10--10--10-10--3--3--5--5/10-10-10--------------
-3--3--5--5--10-10--10--10-10--3--3--5--5/10-10-10--------------
---------------------------------------------------12-10-11-----
------------------------------------------------------------12--
----------------------------------------------------------------
----------------------------------------------------------------

-3--3--5--5/10-10-10--10--10-10--3--3--5--5/10-10-10--10-10-10-10-     
-3--3--5--5/10-10-10--10--10-10--3--3--5--5/10-10-10--10-10-10-10-   
------------------------------------------------------------------
------------------------------------------------------------------
------------------------------------------------------------------     
------------------------------------------------------------------

--------------------------------------------
--------------------------------------------
-7/11-11/14-14/19-19------------------------
--------------------------------------------
-5/9--9/12--12/17-17------------------------
-------------------------------------------- 


Bridge:
---------------------------------------------10-10----------------
-x-x-7--x-7--x-7------------x-x-7--x-7--x-7--------7-7------------
-x-x-7--x-7--x-7------7-----x-x-7--x-7--x-7--------7-7------------
-x-x-7--x-7--x-7------------x-x-7--x-7--x-7-----------------------
------------------8h9---9-----------------------------------------
------------------------------------------------------------------

------------------------------------------------------------------
-x-x-7--x-7--x-7------------x-x-7--x-7--x-7-----------------------
-x-x-7--x-7--x-7------7-----x-x-7--x-7--x-7-----------------------
-x-x-7--x-7--x-7------------x-x-7--x-7--x-7-----------------------
------------------8h9---9-----------------------------------------
------------------------------------------------------------------


Solo:
-------------------------------------------9--10p9------
-7----------7----------7----------7----10----------10---
----7-----7---9--6--------7-----7---9-----------------9-
-------9------------7--------9--------------------------
--------------------------------------------------------
--------------------------------------------------------

------------------------14------14--------------------
-15------15------15---------17------17--------14-17---
-----14------14-----14------------------14h16---------
------------------------------------------------------
------------------------------------------------------
------------------------------------------------------

------------------------------------------------------
-15------15-------------------------------------------
-----14------14--14/16-16-16-16\14-14-14--------------
------------------------------------------------------
------------------------------------------------------
------------------------------------------------------

------------------------------------------------------
-15b17b15b17--17b19b17b19--19b20b19b20--20b22b20b22---
------------------------------------------------------
------------------------------------------------------
------------------------------------------------------
------------------------------------------------------

--------------------------------------------
--------------------------------------------
-6/7-7/8-8/9-9------------------------------
--------------------------------------------
-4/5-5/6-6/7-7------------------------------
--------------------------------------------


Instrumental 2 Lick:
----------------------------------------
----------------------------------------
---------------------------4-6----------
-------------------4-5-6-7-----7--------
-----4---4-5-4-5-7----------------------
-5-7---7--------------------------------


Outro Lick:
----------------------------------------
----------------------------------------
----------------------------------------
---------------------------------------- (x2)
-5---------1-2-3-4-3-2-1---------5------
---2-3-4-5---------------5-4-3-2--------


Chords & Tabs by,
tsunvun86
Advertisements

Written by tsunvun86

September 6, 2010 at 4:31 pm

4 Responses

Subscribe to comments with RSS.

  1. Thanks for the song! I’ve been looking for it for a long time! Can you also get the chords for the song Yui played in season 2 episode 9? it didn’t have any lyrics while she was playing it. Thanks!

    juris

    October 4, 2010 at 8:12 pm

  2. kyaaa!! arigatou for chords! I’m so happy! 😀

    Nik-chan

    November 14, 2010 at 6:01 pm

  3. arigatou gozaimashita for the chords ! 🙂

    desu

    July 5, 2011 at 7:51 pm


Leave a Reply

Fill in your details below or click an icon to log in:

WordPress.com Logo

You are commenting using your WordPress.com account. Log Out / Change )

Twitter picture

You are commenting using your Twitter account. Log Out / Change )

Facebook photo

You are commenting using your Facebook account. Log Out / Change )

Google+ photo

You are commenting using your Google+ account. Log Out / Change )

Connecting to %s

%d bloggers like this: