Know Music, Know Life

tsunvun86's Guitar Chords & Tabs

[K-ON!!] HO-KAGO TEA TIME – Pure Pure Heart [Chords & Tabs]

leave a comment »


HO-KAGO TEA TIME - Pure Pure Heart

A/5-(no3) - 56xxxx

Intro:
B (x2)
B Eb G#m E F#

Verse:
B Eb G#m E F# (x2)
Eb G#m C#m F# (x2)
F# G#m A/5-(no3) F#

Chorus:
B Eb G#m F#
Em F# G#m F#
B Eb G#m F#
E F#

Instrumental:
B Eb G#m E F#

repeat Verse

Solo:
E B E B
A G# G F#

Bridge:
E Ebm
E F# B B7
E Ebm G G#
A F# G A

Outro:
B Eb G#m E F# (x2)
B



Solo:

-11-----------14b16-14-11-------14----------------------
-14b16---14---------------14b16----14b16b14p12-14-14----
--------------------------------------------------------
--------------------------------------------------------
--------------------------------------------------------
--------------------------------------------------------

-----------14---14h15p14--10h12p10--7h10p7--------------
-----12-------------------------------------------------
-/12----12----------------------------------------------
--------------------------------------------------------
--------------------------------------------------------
--------------------------------------------------------

----12------14-15-16-------14--16b18--------------------
--------------------------------------------------------
-/13---13/15---15-16---/15------------------------------
--------------------------------------------------------
--------------------------------------------------------
--------------------------------------------------------


Outro Solo:
------------------------------------------------------------------------------
--------------------------------9-9-11-11-11-12-12-12-14-14-14-14/16-16-16-16-
-4-4-4-6-6-6-8-8-8-9-9-9-11-11------------------------------------------------
--------------------------------6-6-8--8--8--9--9--9--11-11-11-11/13-13-13-13-
-2-2-2-4-4-4-6-6-6-7-7-7-9--9-------------------------------------------------
------------------------------------------------------------------------------

-11-----11-----------------------------------------------------------
-14b16--14b16b14-12----12-12-12--------------------------------------
--------------------12----------11--6b8b6p4-6-4-3-4-4h6--------------
--------------------------------------------------------4-6-4--------
---------------------------------------------------------------7-6---
---------------------------------------------------------------------


Chords & Tabs by,
tsunvun86
Advertisements

Written by tsunvun86

September 3, 2010 at 7:16 pm

Leave a Reply

Fill in your details below or click an icon to log in:

WordPress.com Logo

You are commenting using your WordPress.com account. Log Out / Change )

Twitter picture

You are commenting using your Twitter account. Log Out / Change )

Facebook photo

You are commenting using your Facebook account. Log Out / Change )

Google+ photo

You are commenting using your Google+ account. Log Out / Change )

Connecting to %s

%d bloggers like this: