Know Music, Know Life

tsunvun86's Guitar Chords & Tabs

YUI – Last Train [Chords & Tabs]

leave a comment »


YUI - Last Train

Dsus2 - xx0230
Dsus4 - xx0233
Bsus4 - x24400
G/F# - 220003
G/E - 020003
Gmaj7 - 320002
Emadd9 - 022002
Asus2 - x02200

Intro:
Dsus2
D Dsus4 D           )
Bsus4 Bm G G/F# G/E } (x2)

Verse:
Dsus2 D Bsus4 Bm (x2)
Gmaj7 Bm Bsus4 Bm
Emadd9
Asus2

Chorus:
D Asus2 Bm Gmaj7 (x2)
Bm Asus2 D

Instrumental:
D Dsus4 D
Bsus4 Bm G G/F# G/E

repeat Verse

Chorus 2:
D Asus2 Bm Gmaj7 (x2)
Bm Asus2 D
Dsus4 Dsus2 D

Bridge:
Gmaj7 D Em F#m C Asus2

SOLO:
Bm G Asus2 D
Bm G Em Asus2

Chorus 3:
D Asus2 Bm Gmaj7 (x4)
Bm Asus2 G
Bm Asus2 D

Outro:
D
G D Dsus4 D (x2)
G 

Intro Solo:
-----------------------------------------------------------------
-----------------------------------------------------------------
-7/11-11--11--12-12-12b14b12-11--11/9-9/7-7--4/9--11-11b12-------
-----------------------------------------------------------------
-----------------------------------------------------------------
-----------------------------------------------------------------

-----------------------------------------------------------------
-----------------------------------------------------------------
-11--11--12-12-12b14b12-11--11/9-9/7-7--4/9--11-11b12-11---------
-----------------------------------------------------------------
-----------------------------------------------------------------
-----------------------------------------------------------------

Instrumental Solo:
-----------------------------------------------------------------
-----------------------------------------------------------------
-7/11-11--11--12-12-12b14b12-11--11/9-9/7-7--4/9--11-11b12-11----
-----------------------------------------------------------------
-----------------------------------------------------------------
-----------------------------------------------------------------

Solo:
-----------------------------------------------------------------------------------
---------------------------------------------------------7h8p7---7-7h8-7-----------
-----4-2/4-6-6/7---------------------------6-6h7-7/9-7---------9---------7h9-7-----
-0h2-------------5--3/5-5-7-7/9-7--5/7-7-9-----------------------------------------
-----------------------------------------------------------------------------------
-----------------------------------------------------------------------------------

---------------------10--10/12-10h12-10--12/14-14-12-10h12-12--12/14-14-12-10-10h12-10-----------
-----8h10-8-7h8--7-8--------------------------------------------------------------------12-12\10-
-7-9---------------------------------------------------------------------------------------------
-------------------------------------------------------------------------------------------------
-------------------------------------------------------------------------------------------------
-------------------------------------------------------------------------------------------------

Outro Solo:
---------------------------------------------------------------------
-8/10-10-8-8-7-7-----------------8/10-10-8-8-7-7---------------------
-----------------9-9-7-7/9-11-7------------------9-9-7-7/9-9h11-9/11-
---------------------------------------------------------------------
---------------------------------------------------------------------
---------------------------------------------------------------------

-----------------------------------------------------------------------------
-8/10-10-8-8-7-7-----------------8/10-10-8-8-7-7-----------------------------
-----------------9-9-7-7/9-11-7------------------9-9-7-9-9/11-9/11--11-11/12-
-----------------------------------------------------------------------------
-----------------------------------------------------------------------------
-----------------------------------------------------------------------------

Chords & Tabs by,
tsunvun86 @ YUI-Lover Forum & Fansite
Advertisements

Written by tsunvun86

September 2, 2010 at 4:16 pm

Posted in Chords & Tabs, Guitar Cover, YUI

Tagged with , , , , , ,

Leave a Reply

Fill in your details below or click an icon to log in:

WordPress.com Logo

You are commenting using your WordPress.com account. Log Out / Change )

Twitter picture

You are commenting using your Twitter account. Log Out / Change )

Facebook photo

You are commenting using your Facebook account. Log Out / Change )

Google+ photo

You are commenting using your Google+ account. Log Out / Change )

Connecting to %s

%d bloggers like this: