Know Music, Know Life

tsunvun86's Guitar Chords & Tabs

[K-ON!!] HO-KAGO TEA TIME – Gohan wa Okazu [TV Size] Chords & Tabs

leave a comment »


Full song chords & tabs available here!

HO-KAGO TEA TIME - Gohan wa Okazu

Intro:
D     )
A G D } (x2)

Verse:
D A (x2)

Pre-Chorus:
G A F# Bm
Em E A

Chorus:
G A D (x4)
D
G A D

Instrumental:
D     )
A G D } (x2)
A D G A

repeat Chorus

Instrumental 2:
D     )
A G D } (x4)
D A G A D

Intro/Instrumental Riff:
(This part was originally played on the keyboard)
----------------------------------------------------------
----------------------------------------------------------
-11-7-7-7--7-7-7--11-7-7-7--7-7-7--9--9--9--9-11--11-9--7-
----------------------------------------------------------
-9--5-5-5--5-5-5--9--5-5-5--5-5-5--7--7--7--7-9---9--7--5-
----------------------------------------------------------

Instrumental Lick:
----------------------------------------
----------------------------------------
---------------------------4-6----------
-------------------4-5-6-7-----7--------
-----4---4-5-4-5-7----------------------
-5-7---7--------------------------------

Instrumental 2 Lick:
----------------------------------------
----------------------------------------
----------------------------------------
----------------------------------------
-5---------1-2-3-4-3-2-1---------5------
---2-3-4-5---------------5-4-3-2--------


Chords & Tabs by,
tsunvun86
Advertisements

Written by tsunvun86

September 2, 2010 at 12:28 am

Leave a Reply

Fill in your details below or click an icon to log in:

WordPress.com Logo

You are commenting using your WordPress.com account. Log Out / Change )

Twitter picture

You are commenting using your Twitter account. Log Out / Change )

Facebook photo

You are commenting using your Facebook account. Log Out / Change )

Google+ photo

You are commenting using your Google+ account. Log Out / Change )

Connecting to %s

%d bloggers like this: