Know Music, Know Life

tsunvun86's Guitar Chords & Tabs

YUI – SUMMER SONG [Chords & Tabs]

leave a comment »


YUI - SUMMER SONG

**CAPO AT 1ST FRET**

Dsus2 - xx0230
Cadd9/B - x20010
Am7 - x02010
Cadd9 - x32030

Intro:
Dsus2
G C Cadd9/B Am7
G C Cadd9/B Am7
---------------------------------------0---------------0--
-----------3-----------3-----------3-------3---------3----
---------0---0-------0---0-------0---0---0---------0------
-2-2-0h2-------2-0h2-------2-0h2---------------0h2--------
----------------------------------------------------------
----------------------------------------------------------

------------------------0-------------------
-----1-----1----------3--------1-----1------
--------------------0-----------------------
---2-----0------0h2----------2-----0--------
-3-----2-----0-------------3-----2-----0----
--------------------------------------------

Verse:
G Dsus2 Cadd9 (x2)
Em C G Dsus2 (x3)
F Dsus2

-----------------------------0--------------------
-----3-----3-3/5-5-5\3-3--------------------------
-------0h2---2/4---4\2----------------------------
-0h2---------------------0h2----------------------
--------------------------------------------------
--------------------------------------------------

Chorus:
G D Am C (x4)

Dsus2 C Dsus2 C Cadd9/B Am7

-----------0--------------0--------------0-------------------
-------3-----3--------3-----3--------3-----3------1-----1----
-----0---0----------0---0----------0---0---------------------
-0h2------------0h2------------0h2--------------2-----0------
----------------------------------------------3-----2-----0--
-------------------------------------------------------------

repeat Verse

repeat Chorus

Bridge:
Em C G D
Em C D (x3)

----------------------------------------------------
-------0-------0-------0--------------0-------0-----
-----0-------0-------0--------------0-------0-------
-0h2-----0h2-----0h2------0h2---0h2-----0h2---------
----------------------------------------------------
----------------------------------------------------

-----------------------------0--------------------
-----3-----3-3/5-5-5\3-3--------------------------
-------0h2---2/4---4\2----------------------------
-0h2---------------------0h2----------------------
--------------------------------------------------
--------------------------------------------------

repeat Chorus (x2)
G

Chords & Tabs by,
tsunvun86 @ YUILover Forum & Fansite
Advertisements

Written by tsunvun86

September 1, 2010 at 6:29 pm

Leave a Reply

Fill in your details below or click an icon to log in:

WordPress.com Logo

You are commenting using your WordPress.com account. Log Out / Change )

Twitter picture

You are commenting using your Twitter account. Log Out / Change )

Facebook photo

You are commenting using your Facebook account. Log Out / Change )

Google+ photo

You are commenting using your Google+ account. Log Out / Change )

Connecting to %s

%d bloggers like this: