Know Music, Know Life

tsunvun86's Guitar Chords & Tabs

YUI – Never say die [Chords & Tabs]

with one comment


YUI - Never say die

Intro:
E A C#m B (x2)
E B A (x2)

Verse:
E B A F#
E B A B
A G# A F# B

Chorus:
E A C#m B (x2)

E B A (x2)

repeat Verse

repeat Chorus

A

Solo:
E A E B
E A B

Bridge:
F#m G#
F#m G#

repeat Chorus (x2)

Outro:
E B A (x2)
E

Intro/after 1st chorus Solo
----------------------------
-9--10--12-12--10--9-9-10-5-
----------------------------
-6--7---9--9---7---6-6-7--2-
----------------------------
----------------------------

-----------------------------
-9--10--12-12--10--9-9-10-17-
-----------------------------
-6--7---9--9---7---6-6-7--14-
-----------------------------
-----------------------------

Solo:
-------------------------------------------------------------
-12----12-----12----12-----12--------------------------------
-11b13-11b13--11b13-11b13--11b13b11-9------------------------
--------------------------------------11----9-11-9--9--------
-----------------------------------------11-----------/11-11-
-------------------------------------------------------------

-------------------------------------12-------------------------------------------
--------------9----------10-12-12b14----12b14b12p9--------------------------------
-9----9--9-11---11/13-13---------------------------11b13b11p9-11-9-8--------------
---11----------------------------------------------------------------9-11-11-11-9-
----------------------------------------------------------------------------------
----------------------------------------------------------------------------------

Outro Solo:
-----------------------------------------------------------
-----------------------------------------------------------
-9--11--13--14--13--11--9--16-16-16--9--16-16-16-----------
-----------------------------------------------------------
-7--9---11--12--11--9---7--14-14-14--7--14-14-14-----------
-----------------------------------------------------------

--------------------------------------------------------------
--------------------------------------------------------------
-9--11--13--14--13--11--9--16-16-16--16\14-14\13-13\11-11\9-9-
--------------------------------------------------------------
-7--9---11--12--11--9---7--14-14-14--14\12-12\11-11\9--9\7--7-
--------------------------------------------------------------

Chords & Tabs by,
tsunvun86
Advertisements

Written by tsunvun86

September 1, 2010 at 3:07 am

Posted in Chords & Tabs, Guitar Cover, YUI

Tagged with , , , , , , ,

One Response

Subscribe to comments with RSS.

  1. […] Never say die (Guitar cover) Artist: tsunvun […]


Leave a Reply

Fill in your details below or click an icon to log in:

WordPress.com Logo

You are commenting using your WordPress.com account. Log Out / Change )

Twitter picture

You are commenting using your Twitter account. Log Out / Change )

Facebook photo

You are commenting using your Facebook account. Log Out / Change )

Google+ photo

You are commenting using your Google+ account. Log Out / Change )

Connecting to %s

%d bloggers like this: