Know Music, Know Life

tsunvun86's Guitar Chords & Tabs

YUI – I do it [Chords & Tabs]

leave a comment »


YUI - I do it

Intro:
Gm Bb Eb C (x4)

Verse:
Bb Gm Eb F (x2)
Eb Bb
Eb F D

Chorus:
Gm Bb Eb C (x4)

Instrumental:
Gm Bb Eb C (x2)

repeat Verse

repeat Chorus

Solo:
Gm Bb Eb C (x2)

Bridge:
Eb Dm Cm Dm
Eb F Cm
Eb D

repeat Chorus

Outro:
Gm Bb Eb C (x4)
Eb F D/F#


Intro/Instrumental Solo:
---------------------------------------------------------------
-----11--11-10-11-13-10-11-------------------------------------
-/10-10--10-10-10-10-10-10-------------------------------------
----------------------------12/13-13-12-12-10-10-8--7--7--8----
---------------------------------------------------------------
----------------------------10/11-11-10-10-8--8--6--5--5--6----

------------------------------------15-------------------------
-11--11-10-11-13-10-11-----------13----13--5--5/13-13----------
-10--10-10-10-10-10-10----/15-15-----------5--5/12-12----------
---------------------------------------------------------------
---------------------------------------------------------------
---------------------------------------------------------------

Solo:                    
                         A.H(artificial harmonics)
------------------------------------------------------------------------
-/15---6---/15---6---/15-15--------13-11--10h11p10----------------------
--------------------------------12-----------------10-10b12-10b12b10-9--
-----------------------------12-----------------------------------------
------------------------------------------------------------------------
------------------------------------------------------------------------

------------------------------------------------------------------------
--------------5---5-3---8--8-10--10-10-11--11-11-11/13------------------
--------------5---5-3---------------------------------------------------
-------3----3-5-3-5-3---5--5-7---7--7--8---8--8--8/10-------------------
-----5-3--5-------------------------------------------------------------
-3-6--------------------------------------------------------------------


Outro Solo:
---------------------------------------------------------------
-----11--11-10-11-13-10-11-------------------------------------
-/10-10--10-10-10-10-10-10-------------------------------------
----------------------------12/13-13-12-12-10-10-8--7--7--8----
---------------------------------------------------------------
----------------------------10/11-11-10-10-8--8--6--5--5--6----

---------------------------------15----------------------------
-11--11-10-11-13-10-11--------13----13--5--5/13-13-------------
-10--10-10-10-10-10-10----/15-----------5--5/12-12-------------
---------------------------------------------------------------
---------------------------------------------------------------
---------------------------------------------------------------

---------------------------------------------------------------
-11--11-10-11-13-10-11-----------------------------------------
-10--10-10-10-10-10-10-----------------------------------------
------------------------12/13-13-12-12-10-10-8--7--7--8--------
---------------------------------------------------------------
------------------------10/11-11-10-10-8--8--6--5--5--6--------

---------------------------------15----------------------------
-11--11-10-11-13-10-11--------13----13--5--5/13-13-------------
-10--10-10-10-10-10-10----/15-----------5--5/12-12-------------
---------------------------------------------------------------
---------------------------------------------------------------
---------------------------------------------------------------

---------------------------------------------------------------
---------------------------------------------------------------
-8-8-8-8--10-10-10-10--11-11-11-11-----------------------------
---------------------------------------------------------------
-6-6-6-6--8--8--8--8---9--9--9--9------------------------------
---------------------------------------------------------------


Chords & Tabs by,
tsunvun86
Advertisements

Written by tsunvun86

September 1, 2010 at 2:33 am

Posted in Chords & Tabs, Guitar Cover, YUI

Tagged with , , , , , , ,

Leave a Reply

Fill in your details below or click an icon to log in:

WordPress.com Logo

You are commenting using your WordPress.com account. Log Out / Change )

Twitter picture

You are commenting using your Twitter account. Log Out / Change )

Facebook photo

You are commenting using your Facebook account. Log Out / Change )

Google+ photo

You are commenting using your Google+ account. Log Out / Change )

Connecting to %s

%d bloggers like this: