Know Music, Know Life

tsunvun86's Guitar Chords & Tabs

YUI – again [Chords & Tabs]

with 3 comments


YUI - again

Dsus2 - xx0230
B7 - x24242 / x21202

Intro:
Dsus2

e-0---0-----0-----0------
B--3----3-----3-----3----
G---2-----2-----2-----2--
D------------------------
A------------------------
E------------------------

Em D C B7 (x2)
B7

Verse:
Em D C (x4)
Em Em Em C D (x2)

Chorus:
C D Em
A B
C D Em
Em B
C D Em
A B
C D

Em

repeat Verse

repeat Chorus

Bridge:
F G Am (x2)
F D

Solo:
Eb F Gm
Eb F D

C D Em (x2)
Em B

repeat Chorus

Outro:
Em D C B7 (x2)
B7
Em


Intro Solo:
e-------------------------------------------------------------------------
B------8-7---------8-7-8/10-8-7---------8-7---------8-7-------------------
G----7-----7-----7--------------8-----7-----7-----7-----8b9b8b9b8b9b8b9b8-
D-/9----------/9-------------------/9----------/9-------------------------
A-------------------------------------------------------------------------
E-------------------------------------------------------------------------

Verse 1:
e-12--12-----12--12----------------------------------------------------
B-12-----12--12-----12-------------------------------------------------
G-12---------12--------12----------------------------------------------
D-14---------14--------------------------------------------------------
A----------------------------------------------------------------------
E----------------------------------------------------------------------

Verse 2:
e-12-----12---------12-----12------------------------------------------
B-12-12-----12------12-12-----12---------------------------------------
G-12-----------12---12-----------12------------------------------------
D-14----------------14-------------------------------------------------
A----------------------------------------------------------------------
E----------------------------------------------------------------------

Chorus:
e-12----10----12-----------------------12----10----10---15-------14-------12-------
B----12----12----12---------10-12-10------12----12---------12-12----12-12------12--
G-------------------------9----------------------------------------------------11--
D---------------------/11----------------------------------------------------------
A----------------------------------------------------------------------------------
E----------------------------------------------------------------------------------

e-12----10----12-----------------------12----10------------------------
B----12----12----12---------10-12-10------12----12---------------------
G-------------------------9--------------------------------------------
D---------------------/11----------------------------------------------
A----------------------------------------------------------------------
E----------------------------------------------------------------------

Bridge:
e------------------------12--------12----------------------------------
B----13--------15-----------12--------12-------------------------------
G-------14--------16--14--------14-------------------------------------
D-15--------17---------------------------------------------------------
A----------------------------------------------------------------------
E----------------------------------------------------------------------

e------------------------12--------12--------------13-13-13-13-13-13-14-
B----13--------15-----------12--------12-----------13-13-13-13-13-13-13-
G-------14--------16--14--------14-------14----/14----------------------
D-15--------17----------------------------------------------------------
A-----------------------------------------------------------------------
E-----------------------------------------------------------------------

Solo:
e----------------------------------------------------------------------
B----------------------------------------------------------------------
G-2/8-8-8-8-7-7-7-----8-8-8-7-7-7----------7--7b8b7----/8-8-8-10-10-10-
D-----------------8-8-------------8-8--10------------------------------
A----------------------------------------------------------------------
E----------------------------------------------------------------------

e----------------------------------------------------------------------
B-8-8-10-10-10-11-11-11-13-13--15--13--15b16b15------------------------
G----------------------------------------------------------------------
D----------------------------------------------------------------------
A----------------------------------------------------------------------
E----------------------------------------------------------------------

Outro Solo:
e-------------------------------------------------------------------------
B------8-7---------8-7-8/10-8-7---------8-7---------8-7-------------------
G----7-----7-----7--------------8-----7-----7-----7-----8b9b8b9b8b9b8b9b8- (pluck once and bend few times)
D-/9----------/9-------------------/9----------/9-------------------------
A-------------------------------------------------------------------------
E-------------------------------------------------------------------------


Chords & Tabs by,
tsunvun86 @ YUILover Forum & Fansite
Advertisements

Written by tsunvun86

September 1, 2010 at 8:07 pm

Posted in Chords & Tabs, Guitar Cover, YUI

Tagged with , , , , ,

3 Responses

Subscribe to comments with RSS.

  1. love this blog!

    nice work ^^

    yuinoruido

    September 2, 2010 at 1:24 am

  2. I think u’r really great in transcribing songs…
    Awesome!!! 🙂

    Mmm…, if you don’t mind,
    would you share to us the secret/tips in transcribing song???

    I’m really want to be as great as you in transcribing… ^^

    Thank You… 🙂 🙂 🙂

    yudhie

    December 19, 2011 at 11:42 am


Leave a Reply

Fill in your details below or click an icon to log in:

WordPress.com Logo

You are commenting using your WordPress.com account. Log Out / Change )

Twitter picture

You are commenting using your Twitter account. Log Out / Change )

Facebook photo

You are commenting using your Facebook account. Log Out / Change )

Google+ photo

You are commenting using your Google+ account. Log Out / Change )

Connecting to %s

%d bloggers like this: