Know Music, Know Life

tsunvun86's Guitar Chords & Tabs

Shiina Ringo – Ariamaru Tomi [Chords & Tabs]

with 2 comments


Shiina Ringo - Ariamaru Tomi

G - 3x0433
DM7 - xx0222
Am/D - xx0555
G - xx0433
Bb/5- - xx0330
D7 - xx0212
CM7/D(no5) - xx0557
E7(no3) - xx2430
Gm/E - xx2333
F#7sus4 - 242422
F#7 - 242322
Bbdim - x12020
C#/-5 - x45650
E7 - 020100
Dsus2 - xx0230

Intro:
DM7 Am/D G Bb/5-
-2---5---3---0-
-2---5---3---3-
-2---5---4---3-
-0---0---0---0-
---------------
---------------

D7 CM7/D(no5) Am/D E7(no3) Gm/E
-2---7---5---0---3-
-1---5---5---3---3-
-2---5---5---4---3-
-0---0---0---2---2-
-------------------
-------------------

Verse:
DM7 Am/D G Bb/5-
-2---5---3---0-
-2---5---3---3-
-2---5---4---3-
-0---0---0---0-
---------------
---------------

D7 CM7/D(no5) Am/D E7(no3) Gm/E
-2---7---5---0---3-
-1---5---5---3---3-
-2---5---5---4---3-
-0---0---0---2---2-
-------------------
-------------------

GM7 G6 F#7sus4 F#7 Bm Bbm Am D7
-2--0---2--2---2---1---0---2-----
-0--0---2--2---3---2---1---1-----
-0--0---4--3---4---3---2---2-----
-0--0---2--2---4---3---2---0-----
--------4--4---2---1---0---------
-3--3---2--2---------------------

 G    A Bbdim Bm G    A    Bm  A
-3---0--0---2---3---0-------0----
-3---2--2---3---3---2---3---2----
-4---2--0---4---4---2---4---2----
-0---2--2---4---0---2---4---2----
-----0--1---2-------0---2---0----
-3--------------3----------------

Chorus:
D F#7sus2 F#7 Bm Bbm Am D7
G F#7sus2 F#7 Bm Bbm Am D7
G A Bbdim Bm
G A Bm A

Verse:
DM7 Am/D G Bb/5-
D7 CM7/D(no5) Am/D E7(no3) Gm/E
GM7 G6 F#7sus4 F#7 Bm Bbm Am D7
G A Bbdim Bm (x2)
A

Chorus:
D F#7sus2 F#7 Bm Bbm Am D7
G F#7sus2 F#7 Bm Bbm Am D7
G A Bbdim Bm
G A

Solo:
Bb A
Gm C#/-5 F#m Bm
Em Bbdim Dsus2 G E7
DM7 Am/D G Bb/5-
D7 CM7/D(no5) Am/D E7(no3) Gm/E

Chorus:
G F#7sus2 F#7 Bm Bbm Am D7 (x2)
G A Bbdim Bm
G A Bbdim Bm E
G A Bbdim Bm
G A

***:
DM7 Am/D G Bb/5-
D7 CM7/D(no5) Am/D E7(no3) Gm/E

repeat ***

Dsus2

repeat *** (x4)

D
-5-
-7-
-7-
-7-
-5-
---

Chords & Tabs by,
tsunvun86
Advertisements

Written by tsunvun86

September 1, 2010 at 2:47 pm

2 Responses

Subscribe to comments with RSS.

  1. This is great! Could you tab some more Ringo songs? Like perhaps Meisai, Koufukeron, Gamble, Stem…. well anything!

    Chase

    April 4, 2011 at 1:32 pm

  2. thank you this is really greaat!!!!! awesome.

    Rin

    June 4, 2016 at 10:17 am


Leave a Reply

Fill in your details below or click an icon to log in:

WordPress.com Logo

You are commenting using your WordPress.com account. Log Out / Change )

Twitter picture

You are commenting using your Twitter account. Log Out / Change )

Facebook photo

You are commenting using your Facebook account. Log Out / Change )

Google+ photo

You are commenting using your Google+ account. Log Out / Change )

Connecting to %s

%d bloggers like this: