Know Music, Know Life

tsunvun86's Guitar Chords & Tabs

SCANDAL – Taiyou to Kimi Egaku STORY [Chords & Tabs]

leave a comment »


SCANDAL - Taiyou to Kimi Egaku STORY

B/F# - 224442
F#/G - 3443xx
Cmadd11+ - x34543
A/5-(no3) - 567xxx
Bsus2 - x24422

Intro:
F# E Ebm D
C#

Verse 1:
F# G#m Bbm C#m Eb G#m F#/G B/F#
Bm Bbm Ebm
G#m G# C#
F# G#m Bbm C#m Eb G#m F#/G B/F#
C# Bb Ebm F#
B D E F#
B F#

Chorus:
B Bbm Ebm C#
G#m C# F#
C#m F#
B Bbm C#m Cmadd11+
B Bbm Ebm
G#m C# 

Instrumental:
F# E Ebm C#

Verse 2:
F# G#m Bbm C#m Eb G#m F#/G B/F#
C# Bb Ebm F#
B D E F#
B F#

repeat Chorus

F#

Bridge:
D E C#m F#
Bm G
G#m C#

Solo:
B Ebm
F7 Bb Eb
C#

Chorus 2:
B Bbm Ebm C#
G#m C# F#
C#m F#
B G#m A/5-(no3) Bbm C#m Cmadd11+
B Bbm Ebm (x2)
G#m C#

Outro:
F# E Ebm D
C# (x2)
Bsus2

Intro/Outro (MAMI):
---------------------------------------------------------
-11--12-12-11--11--12-12-11--12--14-14-12--12--14-14-12--
-11--11-11-11--11--11-11-11--11--11-11-11--11--11-11-11--
-11--11-11-11--11--11-11-11--11--11-11-11--11--11-11-11--
---------------------------------------------------------
---------------------------------------------------------

----------------------------------------------------------------------------
------------------11-12--12/14-------14-------14-------14-------14----14----
----------11--13------------------------------------------------------------
--11--13-----------------------11-11----11-11----11-11----11-11----11----11-
----------------------------------------------------------------------------
----------------------------------------------------------------------------

1st Verse (MAMI):
 F# G#m Bbm      C#m Eb         G#m F#/G B/F# Bm     Bbm  Ebm    G#m  G#  C#
----------------------------------------------10----------------------------------------
-11-------------------------------------------12------11--12--11--12--13----------------
-11--11--10--11--13--12--13--15--13--15--16-------11--11--11--11--13--13--11--10--------
-----11--8---9---11--13--13--13--13--16--16-------9-----------------------11--11--------
----------------------------------------------------------------------------------------
----------------------------------------------------------------------------------------

Instrumental (MAMI):
--------------------------------------------------------------------------------------------
-11--12-12-11--11--12-12-11--12--14-14-12---14-------14-------14-------14-------14----14----
-11--11-11-11--11--11-11-11--11--11-11-11---------------------------------------------------
-11--11-11-11--11--11-11-11--11--11-11-11------11-11----11-11----11-11----11-11----11----11-
--------------------------------------------------------------------------------------------
--------------------------------------------------------------------------------------------

Solo:
--------------------------------------------------------------------
-11--------11-------11-------11-----------------11---11-------14/16-
-----11-------11-------11-------11--------10-11---------11----------
--------13-------13-------13-------13-/13------------------13-------
--------------------------------------------------------------------
--------------------------------------------------------------------

------------------------------------------14/16-14-------------
------------12-14-14/16-15--15---------------------------------
-/13--13-15----------------------11/13-11----------------------
---------------------------------------------------------------
---------------------------------------------------------------
---------------------------------------------------------------

Chords & Tabs by,
tsunvun86
Advertisements

Written by tsunvun86

September 1, 2010 at 4:12 am

Leave a Reply

Fill in your details below or click an icon to log in:

WordPress.com Logo

You are commenting using your WordPress.com account. Log Out / Change )

Twitter picture

You are commenting using your Twitter account. Log Out / Change )

Facebook photo

You are commenting using your Facebook account. Log Out / Change )

Google+ photo

You are commenting using your Google+ account. Log Out / Change )

Connecting to %s

%d bloggers like this: