Know Music, Know Life

tsunvun86's Guitar Chords & Tabs

SCANDAL – SCANDAL BABY [Chords & Tabs]

with 6 comments



SCANDAL - SCANDAL BABY

Intro:
C D Em
C D G A
C D Em (x2)
C D Em A
C D G A
C B Em A
C D Em

Verse:
C D Em A
C D G A
C D Em A
C D G
C D Em A
C D G A
C B Em A
C D Em

Pre-Chorus:
Am Bm C G
Am Bm C D C D C
B C B C B

Chorus:
C D Em A
C D G A
C B Em A
C D Em
C D Em A
C D G A
C B Em A
C D Em (x2)

Inst:
C D Em A
C D G A
C B Em A
C D Em

repeat Verse

repeat Pre-Chorus

Solo:
C D Em A
C D G A
C B Em A
C D Em

Bridge:
F C G (x2)
F C D B

repeat Inst

repeat Chorus

Outro:
C D Em A )
C D G A  }  x2
C B Em A )
C D Em   )
C D Em
C


##########################################################################################################
INTRO SOLO

PART 1:
--------------------------------------------------------------------------
--------------------------------------------------------------------------
--------------------------------------------------------------------------
-----5-------7-------9-9-7-7-5-------5-------7----------------------------
-3-3---3-5-5---5-7-7-----------5-3-3---3-5-5---5-5-5-5-5-7-7-7-7----------
-------------------------------------------------3-3-3-3-5-5-5-5----------

--------------------------------------------------------------------------
--------------------------------------------------------------------------
--------------------------------------------------------------------------
-----5-------7-------9-9-7-7-5-------5------------2-2-2-2-----------------
-3-3---3-5-5---5-7-7-----------5-3-3---3-5-5-5-5--2-2-2-2-----------------
--------------------------------------------------0-0-0-0-----------------

PART 2: (Same for Inst)

Guitar 1:
--------------------------------------------------------------------------------------------------
--------------------------------------------------------------------------------------------------
-14b16b14-12----------12-----12-14-14b16b14-12------14b16b14-12----------12-----------------------
-------------14-12-14-----14-------------------14---------------14-12-14-----14-12----------12-14-
-----------------------------------------------------------------------------------14-12-14-------
--------------------------------------------------------------------------------------------------

-----------------------------------------------------------------------------------------
---------------------------------------------------------------15------------------------
-14b16b14-12----------12-----12-14-14b16b14-12-----14b16b14-12----12-11-12--11-12--11-12-
-------------14-12-14-----14-------------------14----------------------------------------
-----------------------------------------------------------------------------------------
-----------------------------------------------------------------------------------------

Guitar 2:
-------------------------------------------------------------------------
-------------------------------------------------------------------------
-------------------------------------------------------------------------
-7b9b7-5-------5----5-7-7b9b7-5----7b9b7-5-------5-----------------------
---------7-5-7----7-------------7----------7-5-7----7-5-------5-7--------
--------------------------------------------------------7-5-7------------

--------------------------------------------------------------------------
--------------------------------------------------------------------------
-------------------------------------------7------------------------------
-7b9b7-5-------5----5-7-7b9b7-5----7b9b7-5---5-4-5--4-5--4-5--------------
---------7-5-7----7-------------7-----------------------------------------
--------------------------------------------------------------------------

#########################################################################################################
Lick at 1st Verse:

Guitar 1:
-------------------
-------------------
------11-12---11-9-
----9-------9------
-10----------------
-------------------

Guitar 2:
---------------
---------------
---------------
-----4-5---4-2-
---2-----2-----
-3-------------

#########################################################################################################
Main Solo:
-------------------------------------------------------------------------------------------
-7----7----7-----8-----8------7----7----7----5-----7----7-----8------10------12----12------
-9b11-9b11-9b11--11b12-11b12--9b11-9b11-9b11-7b9---9b11-9b11--11b12--12b14---14b16-14b16---
-------------------------------------------------------------------------------------------
-------------------------------------------------------------------------------------------
-------------------------------------------------------------------------------------------

-10-x-x-12-x-x-15-x-x-10-x-x-12-x-x-15-x-x-17-x-x-15---15-x-x-17-x-x-19-20-19-19/22-
----------------------------------------------------------------------------
-7--x-x-9--x-x-12-x-x-7--x-x-9--x-x-12-x-x-14-x-x-12---12-x-x-14-x-x-16-17-16-16/19-
------------------------------------------------------------------------------------
------------------------------------------------------------------------------------
------------------------------------------------------------------------------------

#########################################################################################################
Lick after bridge:
--------------------------------------------------------------------------
--------------------------------------------------------------------------
--------------------------------------------------------------------------
-----5-------7-------9-9-7-7-5-------5-------7----------------------------
-3-3---3-5-5---5-7-7-----------5-3-3---3-5-5---5-5-5-5-5-7-7-7-7----------
-------------------------------------------------3-3-3-3-5-5-5-5----------

--------------------------------------------------------------------------
--------------------------------------------------------------------------
----------------------------------5-5-5-5--7-7-7-7------------------------
-----5---------------9-9-7-7-5----5-5-5-5--7-7-7-7---2-2-2-2--------------
-3-3---3-5-5-6-6-7-7-----------5--3-3-3-3--5-5-5-5---2-2-2-2--------------
-----------------------------------------------------0-0-0-0--------------


#########################################################################################################
Outro Solo:
repeat Intro Solo - Part 2 (x2)

Guitar 1:
--------------------------------------------------------------------------
--------------------------------------------------------------------------
-14b16b14-12----------12-----------5--------------------------------------
-------------14-12-14-----2-2-2-2--5--------------------------------------
--------------------------2-2-2-2--3--------------------------------------
--------------------------0-0-0-0-----------------------------------------

Guitar 2:
--------------------------------------------------------------------------
--------------------------------------------------------------------------
---------------------------5----------------------------------------------
-7b9b7-5-------5--2-2-2-2--5----------------------------------------------
---------7-5-7----2-2-2-2--3----------------------------------------------
------------------0-0-0-0-------------------------------------------------

#########################################################################################################



Chords & Tabs by,
tsunvun86 @ SCANDAL HEAVEN
Advertisements

Written by tsunvun86

September 1, 2010 at 4:59 am

6 Responses

Subscribe to comments with RSS.

  1. I’m having trouble with the 14b16b14 part… I know what it’s supposed to sound like, but not how to do it (;_;) I’m a super beginner at guitar.

    JOYCE★DAJUNG (@misstaxi__)

    November 26, 2016 at 8:55 pm

    • You hold the 14th fret, pluck it, bend the string until the note sounds like the 16th fret and then bend it back down. All this just with 1 pluck at the beginning.

      tsunvun86

      November 26, 2016 at 9:04 pm

      • Ah, I actually figured that out not too long after I made that comment! (><) Thanks so much for the quick reply anyhow!
        I had another question.. around 0:55 in the video, what's that little lick that you're doing? Trying to imitate it but I don't think it's in the tabs ._.

        JOYCE★DAJUNG (@misstaxi__)

        December 18, 2016 at 10:49 pm

      • It’s a half step bend on the 3rd string 6th fret.

        tsunvun86

        December 18, 2016 at 11:14 pm

  2. ON THE STUDIO VERSION THE LEAD MELODY IS ALWAYS PLAYED IN THE LOWER OCTIVE AND SOUNDS DULL BUT LIVE MAMI PLAYS IT ALL UP AN OCTIVE. YOU DO BOTH IN YOUR VIDEO.THANKS FOR SHOWING IT THAT WAY.

    BOB JAROSZ

    March 14, 2017 at 1:56 pm

    • In the studio version both octaves are played. Listen closer 😀

      tsunvun86

      March 14, 2017 at 3:08 pm


Leave a Reply

Fill in your details below or click an icon to log in:

WordPress.com Logo

You are commenting using your WordPress.com account. Log Out / Change )

Twitter picture

You are commenting using your Twitter account. Log Out / Change )

Facebook photo

You are commenting using your Facebook account. Log Out / Change )

Google+ photo

You are commenting using your Google+ account. Log Out / Change )

Connecting to %s

%d bloggers like this: