Know Music, Know Life

tsunvun86's Guitar Chords & Tabs

SCANDAL – Aitai [Chords & Tabs]

leave a comment »


SCANDAL - Aitai

C7sus4 - x35363
C7 - x35353
C#sus2 - X66644 OR X46644

Intro:
C# Eb G# Fm Eb
C# Eb (x2)

Verse:
G# C7sus4 C7 )
Fm Eb C# Eb  } (x2)

Pre-Chorus:
Cm Bbm Cm C# Cm
Bbm Cm C# Eb
F

Chorus:
C# Eb G# Fm
C# Eb G#
C# Eb G# Fm Eb
C# Eb G#

Instrumental:
C#sus2 G# (x4)

repeat Verse

repeat Pre-Chorus

repeat Chorus

Solo:
Eb C# (x4)

Bridge:
E F# (x2)
G# (x4)
Eb F

repeat Chorus (x2)

Outro:
C# Eb G# Fm  )
C# Eb G#     } (x2)

Intro Solo:
----     ----     ----     ----     ---     ---     ----     ----
-11-     -13-     -11-     -13-     -8-     -9-     -11-     -13-
----(x4) ----(x4) ----(x4) ----(x4) ---(x4) ---(x4) ----(x4) ----(x4)
-8--     -10-     -8--     -10-     -5-     -6-     -8--     -10-
----     ----     ----     ----     ---     ---     ----     ----
----     ----     ----     ----     ---     ---     ----     ----     

----     ----     ----     ----     ----------------------------
-11-     -13-     -11-     -13-     -9--8-9--8-9----------------
----(x4) ----(x4) ----(x4) ----(x4) ----------------------------
-8--     -10-     -8--     -10-     -6--5-6--5-6----------------
----     ----     ----     ----     ----------------------------
----     ----     ----     ----     ----------------------------

Solo:
---- ----                     -------------------------------------------
---- -11-                     -------------------------------------------
---- ----(alternate picking)  --------8--8b10-8b10-8b10-8b10-8b10-8--8\1-
-/8- -8--                     -8\1---------------------------------------
---- ----                     ------6------------------------------------
---- ----                     -------------------------------------------
                                       (alternate pick as you slide)
-------------------------------------------------------------------------
-/11-11-11-x-x-9-x-x-x--x--------------1/~~~~18\~~~~1--------------------
---------------------------------------1/~~~~18\~~~~1--------------------
-/8--8--8--x-x-6-x-x-x--x--/13-13\1--------------------------------------
-------------------------------------------------------------------------
-------------------------------------------------------------------------

Solo at end of Bridge:
------------------------------------------------------------------
------------------------------------------------------------------
-13-13--11-11--10--10--11--10-11---13-13--11-11--10--11-10-8--6-8-
------------------------------------------------------------------
-11-11--9--9---8---8---9---8--9----11-11--9--9---8---9--8--6--4-6-
------------------------------------------------------------------

----------------------------------------------------------- ----
----------------------------------------------------------- ----
-13-13--11-11--10--10--11--10-11---/13-13-13-13-15-15--/17- -17-
----------------------------------------------------------- ----(x7)
-11-11--9--9---8---8---9---8--9----/11-11-11-11-13-13--/15- -15-
----------------------------------------------------------- ----

Outro Solo:
----     ----     ----     ----     ---     ---     ----     ----
-11-     -13-     -11-     -13-     -8-     -9-     -11-     -13-
----(x4) ----(x4) ----(x4) ----(x4) ---(x4) ---(x4) ----(x4) ----(x4)
-8--     -10-     -8--     -10-     -5-     -6-     -8--     -10-
----     ----     ----     ----     ---     ---     ----     ----
----     ----     ----     ----     ---     ---     ----     ----     

----     ----     ----     ----     ---     ---     ---------------
-11-     -13-     -11-     -13-     -8-     -9-     -11-13--11-13--
----(x4) ----(x4) ----(x4) ----(x4) ---(x4) ---(x2) ---------------
-8--     -10-     -8--     -10-     -5-     -6-     -8--10--8--10--
----     ----     ----     ----     ---     ---     ---------------
----     ----     ----     ----     ---     ---     ---------------

----     ----     ----     ----     ---     ---     ----     ----
-11-     -13-     -11-     -13-     -8-     -9-     -11-     -13-
----(x4) ----(x4) ----(x4) ----(x4) ---(x4) ---(x4) ----(x4) ----(x4)
-8--     -10-     -8--     -10-     -5-     -6-     -8--     -10-
----     ----     ----     ----     ---     ---     ----     ----
----     ----     ----     ----     ---     ---     ----     ----     

----     ----     ----     ----     ----------------------------
-11-     -13-     -11-     -13-     -9--8-9--8-9-9-9-9----------
----(x4) ----(x4) ----(x4) ----(x4) ----------------------------
-8--     -10-     -8--     -10-     -6--5-6--5-6-6-6-6----------
----     ----     ----     ----     ----------------------------
----     ----     ----     ----     ----------------------------

Chords & Tabs by,
tsunvun86
Advertisements

Written by tsunvun86

September 1, 2010 at 2:37 am

Leave a Reply

Fill in your details below or click an icon to log in:

WordPress.com Logo

You are commenting using your WordPress.com account. Log Out / Change )

Twitter picture

You are commenting using your Twitter account. Log Out / Change )

Facebook photo

You are commenting using your Facebook account. Log Out / Change )

Google+ photo

You are commenting using your Google+ account. Log Out / Change )

Connecting to %s

%d bloggers like this: