Know Music, Know Life

tsunvun86's Guitar Chords & Tabs

YUI – Tonight [Chords & Tabs]

with one comment


YUI - Tonight

Eb/5-(no3) - x678xx

Intro:
Em G A Bb A G
Em G A D
Em G A Bb A G
Em G Em

Verse:
Em G A Bb A
Em G A D
Em G A Bb A
Em G Em

Pre-Chorus:
C A
C A B 

Chorus:
C D Em G
C D 
C D Eb/5-(no3)

Instrumental:
Em G A Bb A G
Em G A D
Em G A Bb A G
Em G Em

repeat Verse

repeat Pre-Chorus

repeat Chorus

Bridge:
Em G C B D (x4)
Am B

Chorus 2:
C D Em G (x2)
C D G Em
C D 
C D Eb/5-(no3)

Outro:
Em G A Bb A G
Em G A D
Em G A Bb A G
Em G Em

Intro (Guitar 2):
-12-12--12-15-15--17--17--18-17--15--12-12--12-15-15--12--12--15-15------
-12-12--12-15-15--17--17--18-17--15--12-12--12-15-15--12--12--15-15------
-------------------------------------------------------------------------
-------------------------------------------------------------------------
-------------------------------------------------------------------------
-------------------------------------------------------------------------

Pre-Chorus 1:
Guitar 1
-----------      -------  ----------     --------------------------------
-----------      -------  ----------     --------------------------------
-12-11-----      -12-11-  -12-11----     -8------------------------------
-------12--      -------  -------12-(x8) -9------------------------------
-----------(x10) -------  ----------     --------------------------------
-----------      -------  ----------     --------------------------------
Guitar 2
-------------------------------------------------------------------------
-----------------------------4-------------------------------------------
-5--2--4b6b4-2---------5--2--4-------------------------------------------
-5--2----------4b4-2---5--2--4-------------------------------------------
-3--0----------------2-3--0--2-------------------------------------------
-------------------------------------------------------------------------

Chorus:
------------------------------------------------     ---------------------
------------------------------------------------     ---------------------
-12-11---------------12-11-12-11----------------     -12-11-12-11---------
-------12-10-9-10-12-------------12-10-9-10-12--(x2) -------------12-10-9-
------------------------------------------------     ---------------------
------------------------------------------------     ---------------------
                            (wah wah...)
-------------------------------------------------------------------------
----------------------------13-13-13-13-13-13-13-13--15-15-15--16-16-----
-12-11-------------------------------------------------------------------
-------12-10-9-10-9-10-12---10-10-10-10-10-10-10-10--12-12-12--13-13-----
-------------------------------------------------------------------------
-------------------------------------------------------------------------

Instrumental:
 (wah wah...)
-------------10-10-10~~~-----------------------7--7------------------------7-
-10b12~~~~~~~12-12-12~~~b10-10b12b10p8---8----------10b12b10p8---8-8-------8-
---------------------------------------9---9-------------------9-----9-7-9---
-----------------------------------------------------------------------------
-----------------------------------------------------------------------------
-----------------------------------------------------------------------------

-------------------------------------------------------------------------
-10b12b10p8---8-------12--12---------------------------------------------
------------9---9-7-9-9---9----------------------------------------------
-------------------------------------------------------------------------
-------------------------------------------------------------------------
-------------------------------------------------------------------------
Verse 2:
-------------------------------------------------------------------------
-10b12~~~~-----10b12b10p8---8-10b12-8------------------------------------
--------------------------9----------------------------------------------
-------------------------------------------------------------------------
-------------------------------------------------------------------------
-------------------------------------------------------------------------

Pre-Chorus 2:
Guitar 1
-----------      -------  ----------     --------------------------------
-----------      -------  ----------     --------------------------------
-12-11-----      -12-11-  -12-11----     -8------------------------------
-------12--      -------  -------12-(x8) -9------------------------------
-----------(x10) -------  ----------     --------------------------------
-----------      -------  ----------     --------------------------------
Guitar 2
-------------------------------------------------------------------------
------------------------------4------------------------------------------
-5--2--4b6b4p2-----------0-5--2--4---------------------------------------
-5--2----------4b6-4-2-4---5--2--4---------------------------------------
-3--0----------------------3--0--2---------------------------------------
-------------------------------------------------------------------------

Bridge:
Guitar 1
-------------------------------------------------------------------------------
-------------------------------------------------------------------------------
-9--7--5--4-4---9--4--5--4--7-7-7---9--7--5--4--4--4---9--7--5--4--4-4-4-4-4---
-------------------------------------------------------------------------------
-7--5--3--2-2---7--2--3--2--5-5-5---7--5--3--2--2--2---7--5--3--2--2-2-2-2-2---
-------------------------------------------------------------------------------
Guitar 2
-------------------------------------------------------------------------------
-------------------------------------------------------------------------------
-------5--7-7---------5--7--7-7-7---------5--7--7--7---------5--7--7-7-7-7-7-7-
-2--5--5--7-7---2--5--5--7--7-7-7---2--5--5--7--7--7---2--5--5--7--7-7-7-7-7-7-
-2--5--3--5-5---2--5--3--5--5-5-5---2--5--3--5--5--5---2--5--3--5--5-5-5-5-5-5-
-0--3-----------0--3----------------0--3---------------0--3--------------------


Chorus (Final):
------------------------------------------------     -------------------------------
------------------------------------------------     -------------------------------
-12-11---------------12-11-12-11----------------     -12-11---------------12-12--12-
-------12-10-9-10-12-------------12-10-9-10-12--(x3) -------12-10-9-10-12-12-12--12-
------------------------------------------------     -------------------------------
------------------------------------------------     -------------------------------

---------------------------------------------------------------------------------------------
---------------------------------------------------------------------------------------------
-12-11---------------12-11-12-11---------------12-11---------------12-11----12-11------------
-------12-10-9-10-12-------------12-10-9-10-12-------12-10-9-10-12-------12-------12-10-9-10-
---------------------------------------------------------------------------------------------
---------------------------------------------------------------------------------------------
                                                  (wah wah...)
---------------------------------------------------------------------------------------------
--------------------------------------------------13-13-13-13-13-13-13-13--15-15-15--16-16---
-12-11-12-11-----------12-11-----------------------------------------------------------------
-------------12-10-9---------12-10-9-10-9-10-12---10-10-10-10-10-10-10-10--12-12-12--13-13---
---------------------------------------------------------------------------------------------
---------------------------------------------------------------------------------------------

Outro:
--------------------10-------10-------10-------10-------10---------------
-10b12~~~b10--10b12----10b12----10b12----10b12----10b12------------------
-------------------------------------------------------------------------
-------------------------------------------------------------------------
-------------------------------------------------------------------------
-------------------------------------------------------------------------

-----------------------------7--7----------------------------------------
-10b12b10p8---8--------------8--8--------------8-------------------------
------------9---9-7-9--7--9--------7--9--7--9--9-------------------------
-------------------------------------------------------------------------
-------------------------------------------------------------------------
-------------------------------------------------------------------------

Chords & Tabs by,
tsunvun86
Advertisements

Written by tsunvun86

August 31, 2010 at 4:20 pm

One Response

Subscribe to comments with RSS.

  1. Great cover!! ^^

    kazukigazerock10

    April 9, 2012 at 3:02 pm


Leave a Reply

Fill in your details below or click an icon to log in:

WordPress.com Logo

You are commenting using your WordPress.com account. Log Out / Change )

Twitter picture

You are commenting using your Twitter account. Log Out / Change )

Facebook photo

You are commenting using your Facebook account. Log Out / Change )

Google+ photo

You are commenting using your Google+ account. Log Out / Change )

Connecting to %s

%d bloggers like this: