Know Music, Know Life

tsunvun86's Guitar Chords & Tabs

SCANDAL – Pride TV Size Chords & Tabs

with one comment


Get full song chords and tabs *here*.

SCANDAL - Pride TV Size

G#/C - x3111x or x36xxx(Power) or play C
C#maj7 - x46564 or x465xx (Power) 
Bb/D - x5333x or x58xxx(Power) or play D
Eb/G - 365343 or 36xxxx(Power) or play Eb

Intro:
Fm Eb C#
G#/C Bbm Eb G#
C# Eb Fm
C# Eb G# Fm
C#maj7

Verse:
Fm Cm C# Bb
Fm Eb G# Bb C

Pre-Chorus:
C# Cm Fm
Bbm Cm C# Bb/D Eb
C

Chorus:
Fm Eb C#            )
G#/C Bbm Eb G# Eb/G } (x3)
Fm Eb C#
G#/C Bbm Eb G#

Outro:
C# G#/C Bbm
F#7
Fm

Intro Solo:
Guitar 1
-----------------------------------------------------------------------------------
----------16-13----------------------------------------16-14-13--------------------
-13/15-13---------13/15-13-15-13----13--15-13/15-13-15-----------13/15-13-15-13----
---------------------------------15---------------------------------------------15-
-----------------------------------------------------------------------------------
-----------------------------------------------------------------------------------

-------------13----------------
---------16------13~~\11-------
-13--15-------------------10~\-
-------------------------------
-------------------------------
-------------------------------

Guitar 2
-------------------------------------------------------------------------------
-----------------------------------------------------------------6-------------
-------8-5---------------------------8-6-5--------------------8-----5~~\3------
-6/8-6------6/8-6-8-6---6--8-6/8-6-8--------6/8-6-8-6---6--8---------------3~\-
----------------------8-------------------------------8------------------------
-------------------------------------------------------------------------------


Transcribed by,
tsunvun86 @ SCANDAL HEAVEN
About these ads

Written by tsunvun86

January 9, 2011 at 11:19 pm

One Response

Subscribe to comments with RSS.

  1. […] This post was mentioned on Twitter by Stephanie A, tsunvun. tsunvun said: SCANDAL – Pride TV Size Chords & Tabs: http://bit.ly/gTXy04 + a sloppy cover. I smell video deletion. […]


Leave a Reply

Fill in your details below or click an icon to log in:

WordPress.com Logo

You are commenting using your WordPress.com account. Log Out / Change )

Twitter picture

You are commenting using your Twitter account. Log Out / Change )

Facebook photo

You are commenting using your Facebook account. Log Out / Change )

Google+ photo

You are commenting using your Google+ account. Log Out / Change )

Connecting to %s

Follow

Get every new post delivered to your Inbox.

Join 52 other followers

%d bloggers like this: